Song name
# A B C D E F G H I J K L M N O P Q R S T U V W X Y Z

Misc Unsigned Bands - Sir Gerbils - Kitties Rule The World tab

Help us improve GuitareTab! Take a short survey!
-------------------------------------------------------------------------------
			Kitties Rule The World - Sir Gerbils
-------------------------------------------------------------------------------
Tabbed by:Kacee Kuch (Lead Guitar 4 Sir Gerbils)
Email:kc_kuch@yahoo.com

Tuning:Standard
Chorus
e|---------------------------------------------------------------------------|
B|---------------------------------------------------------------------------|
G|---------------------------------------------------------------------------|
D|---------------------------------------------------------------------------|
A|---------------------------------------------------------------------------|
E|-2-2-2-2-play 8 times------------------------------------------------------|
Solo
e|--12-12-13--------------------------11-11-12-11-13-11-11-12-11-13----------|
B|------------12-12-13-------------------------------------------------------|
G|----------------------12-12-13p11------------------------------------------|
D|---------------------------------------------------------------------------|
A|---------------------------------------------------------------------------|
E|---------------------------------------------------------------------------|

e|-11-11-12-11-13-11-11-12-11-13---------------------------------------------|
B|--------------------------------15p14p13-15p14p13-15p14p13-----------------|
G|---------------------------------------------------------------------------|
D|---------------------------------------------------------------------------|
A|---------------------------------------------------------------------------|
E|---------------------------------------------------------------------------|

Chorus
Solo
Chorus x's 2
Solo
Chorus

| /  slide up
| \  slide down
| h  hammer-on
| p  pull-off
| ~  vibrato
| +  harmonic
| x  Mute note
===============================================================================
Related for Sir Gerbils - Kitties Rule The World tab