Song name
# A B C D E F G H I J K L M N O P Q R S T U V W X Y Z

Misc Unsigned Bands - Charetta - Too Far In tab

Drop D (1/2 step down)

    Intro/Chorus                             
         
D#||----------------------------------|
A#||----------------------------------|
F#||--10--10--10--10--10--10--10--10--|
C#||---8---8---8---8---8---8---8---8--|
G#||---8---8---8---8---8---8---8---8--|
C#||---8---8---8---8---8---8---8---8--|


     
----------------------------------|----------------------------------|
----------------------------------|----------------------------------|
--10--10--10--10--10--10--10--10--|--11--11--11--11--11--11--11--11--|
---8---8---8---8---8---8---8---8--|---x---x---x---x---x---x---x---x--|
---8---8---8---8---8---8---8---8--|---9---9---9---9---9---9---9---9--|
---8---8---8---8---8---8---8---8--|---0---0---0---0---0---0---0---0--|


    
----------------------------------|----------------------------------|
----------------------------------|----------------------------------|
--14--14--14--14--14--14--14--14--|--10--10--10--10--10--10--10--10--|
---x---x---x---x---x---x---x---x--|---8---8---8---8---8---8---8---8--|
--12--12--12--12--12--12--12--12--|---8---8---8---8---8---8---8---8--|
---0---0---0---0---0---0---0---0--|---8---8---8---8---8---8---8---8--|


   
----------------------------------|----------------------------------|
----------------------------------|----------------------------------|
--10--10--10--10--10--10--10--10--|--12--12--12--12--12--12--12--12--|
---8---8---8---8---8---8---8---8--|---x---x---x---x---x---x---x---x--|
---8---8---8---8---8---8---8---8--|--10--10--10--10--10--10--10--10--|
---8---8---8---8---8---8---8---8--|---0---0---0---0---0---0---0---0--|


                                                                                          
     
--------------------||-------------------------------------|
--------------------||-------------------------------------|
--11----------------||-------------14------15------14------|
---x----------------||---12----12------12------12------12--|
---9----------------||-------------------------------------|
---0----------------||-------------------------------------|


    
----------------------------------|----------------------------------|
--13------------------------------|------------------11--------------|
----------14------15------14------|----------12--------------12------|
------12------12------12------12--|--10--10------10------10------10--|
----------------------------------|----------------------------------|
----------------------------------|----------------------------------|


                                                              
---------------------------||-----------------------------------|
--------------8------------||-----------------------------------|
--------9-----------9-----*||---12--12--12--12--12--12--12--12--|
--7--7-----7-----7-----7--*||----x---x---x---x---x---x---x---x--|
---------------------------||---10--10--10--10--10--10--10--10--|
---------------------------||-----------------------------------|


     
----------------------------------|----------------------------------|
----------------------------------|----------------------------------|
--14--14--14--14--15--15--15--15--|--10--10--10--10--10--10--10--10--|
---x---x---x---x---x---x---x---x--|---x---x---x---x---x---x---x---x--|
--12--12--12--12--13--13--13--13--|---8---8---8---8---8---8---8---8--|
----------------------------------|----------------------------------|


                         4x
---------------------------||
---------------------------||
--5--5--5--5--5--5--5--5--*||
--x--x--x--x--x--x--x--x--*||
--3--3--3--3--3--3--3--3---||
---------------------------||
Tap to rate this tab
 
# A B C D E F G H I J K L M N O P Q R S T U V W X Y Z