Song name
# A B C D E F G H I J K L M N O P Q R S T U V W X Y Z

Misc Unsigned Bands - The Defrocked Nuns - Out Of The Blue tab

The DefROCKed Nuns: Out Of The Blue

To Listen To The Song: www.myspace.com/defrockednuns

Guitar 1: Intro
e----------------------------------------------------------------------------|
B----------------------------------------------------------------------------|
G----------------------------------------------------------------------------|
D ----2--2--2--2---4--4--4--4----6--6--6--6----------------------------------|
A --3--3--3--3----5--5--5--5----7--7--7--7-----------------------------------|
E----------------------------------------------------------------------------|

5x, At The 2nd time the 2nd guitar plays the same but in chords:

Guitar 2: Chord Progression
e--------------------------------------------------------------------------|
B--------------------------------------------------------------------------|
G--------------------------------------------------------------------------|
D---2--2--2--2---4--4--4--4----6--6--6--6----------------------------------|
A---3--3--3--3---5--5--5--5----7--7--7--7----------------------------------|
E--------------------------------------------------------------------------|

4x ( so th chords go on one more time after the riff)

Guitar 2: Variation and Bridge:
e--------------------------------------------------------------------------|
B--------------------------------------------------------------------------|
G--------------------0-----------------------------------------------------|
D-------2---------------4----------5--7------------------------------------|
A-3--3--3--3----5--5----------7-7-7------7--7--5--7------------------------|
E--------------------------------------------------------------------------|

Finnaly Back to intro 3 times. (Guitar 1)
Tap to rate this tab
# A B C D E F G H I J K L M N O P Q R S T U V W X Y Z