Song name
# A B C D E F G H I J K L M N O P Q R S T U V W X Y Z

Misc Unsigned Bands - Open Your Eyes - Come Alive tab

----------------------------------------------------------------------------
			     Come Alive - Open Your Eyes
----------------------------------------------------------------------------

Tuning: Standard

Intro

Guitar 1 - Lead
e|--------------------------------------------------------------|
B|--------------------------------------------------------------|
G|------10-----------7-----------5------------------------------|
D|---10---10-(x4)--7---7-(x4)--5---5-(x8)-----------------------|
A|-8-------------5-----------3----------------------------------|
E|--------------------------------------------------------------|

Guitar 2 - Rhythm
e|--------------------------------------------------------------|
B|--------------------------------------------------------------|
G|--------------------------------------------------------------|
D|--------------------------------------------------------------|
A|--------------------------------------------------------------|
E|--------------------------------------------------------------|

Verse

Guitar 1 - Lead
e|--------------------------------------------------------------|
B|--------------------------------------------------------------|
G|------10-----------7-----------5------------------------------| <----(x2)
D|---10---10-(x4)--7---7-(x4)--5---5-(x8)-----------------------|
A|-8-------------5-----------3----------------------------------|
E|--------------------------------------------------------------|

Guitar 2 - Rhythm
e|--------------------------------------------------------------|
B|--------------------------------------------------------------|
G|-10---------7---------5---------------------------------------| <----(x2)
D|-10--(x16)--7--(x16)--5--(x32)--------------------------------|
A|-8----------5---------3---------------------------------------|
E|--------------------------------------------------------------|

Pre-chorus

Guitar 1 - Lead
e|--------------------------------------------------------------|
B|--------------------------------------------------------------|
G|-----7--------------------------------------------------------|
D|---7---7--(x8)------------------------------------------------|
A|-5------------------------------------------------------------|
E|--------------------------------------------------------------|

Guitar 2 - Rhythm
e|--------------------------------------------------------------|
B|--------------------------------------------------------------|
G|-7------------------------------------------------------------|
D|-7--(x32)-----------------------------------------------------|
A|-5------------------------------------------------------------|
E|--------------------------------------------------------------|

Chorus

Guitar 1 - Lead
e|-13--(x32)--12--(x32)--10--(x64)------------------------------|
B|--------------------------------------------------------------|
G|--------------------------------------------------------------| <----(x2)
D|--------------------------------------------------------------|
A|--------------------------------------------------------------|
E|--------------------------------------------------------------|

Guitar 2 - Rhythm
e|--------------------------------------------------------------|
B|--------------------------------------------------------------|
G|-10---------7---------5---------------------------------------| <----(x2)
D|-10--(x16)--7--(x16)--5--(x32)--------------------------------|
A|-8----------5---------3---------------------------------------|
E|--------------------------------------------------------------|

Bridge

Guitar 1 - Lead
e|--------------------------------------------------------------|
B|--------------------------------------------------------------|
G|--------------------------------------------------------------|
D|--------------------------------------------------------------|
A|--------------------------------------------------------------|
E|--------------------------------------------------------------|

Guitar 2 - Rhythm
e|--------------------------------------------------------------|
B|--------------------------------------------------------------|
G|-7--------10-------5------------------------------------------| <----(x2)
D|-7-(x16)--10-(x8)--5-(x8)-------------------------------------| 
A|-5--------8--------3------------------------------------------|
E|--------------------------------------------------------------|

End on:

Guitar 1 - Lead
e|-10-----------------------------------------------------------|
B|--------------------------------------------------------------|
G|--------------------------------------------------------------|
D|--------------------------------------------------------------|
A|--------------------------------------------------------------|
E|--------------------------------------------------------------|

Guitar 2 - Rhythm
e|--------------------------------------------------------------|
B|--------------------------------------------------------------|
G|-5------------------------------------------------------------|
D|-5------------------------------------------------------------|
A|-3------------------------------------------------------------|
E|--------------------------------------------------------------|

Song Structure:

Intro
Verse
Pre-chorus
Chorus
Verse
Pre-chorus
Chorus
Bridge
Chorus (x4)

| /  slide up
| \  slide down
| h  hammer-on
| p  pull-off
| ~  vibrato
| +  harmonic
| x  Mute note
============================================================================
Tap to rate this tab
# A B C D E F G H I J K L M N O P Q R S T U V W X Y Z