Song name
# A B C D E F G H I J K L M N O P Q R S T U V W X Y Z

Misc Unsigned Bands - Graham Vasquez - Star Fight tab

Help us improve GuitareTab! Take a short survey!
Tuning: Standard

Intro (capo on 8)

Tapping
E|-h15p8h10h12h15p8h10h12h15p8h10h12|
B|----------------------------------|
G|----------------------------------|
D|----------------------------------|
A|----------------------------------|
E|----------------------------------V

E|-h13p8h10h12h13p8h10h12h13p8h10h12|
B|----------------------------------|
G|----------------------------------|
D|----------------------------------|
A|----------------------------------|
E|----------------------------------V

E|-h17p8h10h12h17p8h10h12|
B|-----------------------|
G|-----------------------|
D|-----------------------|
A|-----------------------|
E|-----------------------V

E|-h15p8h10h12h15p8h10h12h15p8h10h12|
B|----------------------------------|
G|----------------------------------|
D|----------------------------------|
A|----------------------------------|
E|----------------------------------V

E|-h19p8h10h12h19p8h10h12h19p8h10h12|
B|----------------------------------|
G|----------------------------------|
D|----------------------------------|
A|----------------------------------|
E|----------------------------------V

E|-h20p8h10h12h20p810h12h20-------|
B|-------------------------h13p12-|
G|--------------------------------|
D|--------------------------------|
A|--------------------------------|
E|--------------------------------|

1st part (capo on 8) repeat whole 1st part twice.

E|------h15p8-----h15p8-----h15p8-----h15p8-|
B|-h13p8-----h13p8-----h13p8-----h13p8------|
G|------------------------------------------|
D|------------------------------------------|
A|------------------------------------------|
E|------------------------------------------|

E|------h15p8-----h15p8-----h15p8-----h15p8-|
B|-h12p8-----h12p8-----h12p8-----h12p8------|
G|------------------------------------------|
D|------------------------------------------|
A|------------------------------------------|
E|------------------------------------------|

E|------h13p8-----h13p8-----h13p8-----h13p8-|
B|-h13p8-----h13p8-----h13p8-----h13p8------|
G|------------------------------------------|
D|------------------------------------------|
A|------------------------------------------|
E|------------------------------------------|

E|------h12p8-----h12p8----------|
B|-h13p8-----h13p8-----h13/15\13~|
G|-------------------------------|
D|-------------------------------|
A|-------------------------------|
E|-------------------------------|

Play with slide (capo on 8)
E|-20\19/20\19\17\15\12/13\10-|
B|----------------------------|
G|----------------------------|
D|----------------------------|
A|----------------------------|
E|----------------------------|

E|-20\19/20\19\17/22/24\22-|
B|-------------------------|
G|-------------------------|
D|-------------------------|
A|-------------------------|
E|-------------------------| Repeat part with slide.

2nd Part (take capo off)

E|-h8p0h3h5h8p0h3h5h8p0h3h5h8p0h3h5h8p0h3h5h8p0h3h5|
B|-------------------------------------------------|
G|-------------------------------------------------|
D|-------------------------------------------------|
A|-------------------------------------------------|
E|-------------------------------------------------V

E|-h7p0h3h5h7p0h3h5h7p0h3h5h7p0h3h5h7p0h3h5h7p0h3h5|
B|-------------------------------------------------|
G|-------------------------------------------------|
D|-------------------------------------------------|
A|-------------------------------------------------|
E|-------------------------------------------------V

E|-h7p0h1h3h7p0h1h3h7p0h1h3h7p0h1h3h7p0h1h3h7p0h1h3|
B|-------------------------------------------------|
G|-------------------------------------------------|
D|-------------------------------------------------|
A|-------------------------------------------------|
E|-------------------------------------------------V

E|-h10p0h1h3h10p0h1h3h10p0h1h3h12p0h1h3h12p0h1h3h12p0h1h3|
B|-------------------------------------------------------|
G|-------------------------------------------------------|
D|-------------------------------------------------------|
A|-------------------------------------------------------|
E|-------------------------------------------------------V

E|-h12p0h10p0h8p0h7p0h5p0h3p0h1p0-|
B|--------------------------------|
G|--------------------------------|
D|--------------------------------|
A|--------------------------------|
E|--------------------------------| repeat

E|-12~10~8~6~5~------------|
B|-------------6~5~\1~p0h1~|
G|-------------------------|
D|-------------------------|
A|-------------------------|
E|-------------------------|repeat

E|---------------12h15--------------12h15p12-------------------20-|
B|-13p12h13p12h13-----13p12h13p12h13--------13p12-----------------|
G|-----------------------------------------------14p12-------17---|
D|----------------------------------------------------14p12-------|
A|---------------------------------------------------------15-----|
E|----------------------------------------------------------------|

E|-3310*****|
B|-1011/3\1~|
G|----------|
D|----------|
A|----------|
E|----------|

/slide up
\slide down
~vibrato
=hold note
Related for Graham Vasquez - Star Fight tab