Song name
# A B C D E F G H I J K L M N O P Q R S T U V W X Y Z

Misc Unsigned Bands - Craig Bailey - Desert Playground tab

it may look hard at first, but it really simple, it is mainly the basics.
\-slide down
/-slide up
hd-hold
b-bend
hd+b-hold the bend
p-pull off
h-hammer on
- - - - - - - - - - - - -
Intro
E|--1--2--4\2--4--5hd--|
B|---------------------|
G|---------------------|
D|---------------------|
A|---------------------|
E|---------------------|
- - - - - - - - - - - - -
E|-------------------------|
B|-------------------------|
G|---------10--9-----------|
D|--9--10---------10--9hd--|
A|-------------------------|
E|-------------------------|
- - - - - - - - - - - - - - - - - - - - - - - 
E|---------------------------------------------|
B|---------------------------------------------|
G|---------12--10--9---------------------------|
D|--9--10-------------10--9--------------------|
A|---------------------------10--9--7--5--7hd--|
E|---------------------------------------------|
- - - - - - - - - - - - - - - - - - - - - - - 
E|--------------------------|
B|--------------------------|
G|--7--5--7/9--7--5--7p6h7--|
D|--------------------------|
A|--------------------------|
E|--------------------------|
- - - - - - - - - - - - - - - - - - - - - - - - - - -
E|--------------------------------------------------|
B|--------9--7---------------------------------------|
G|--9--7--------9---7--9--10-------------------------|
D|----------------------------10--9--7-----7----9hd--|
A|---------------------------------------9-----7-----|
E|---------------------------------------------------|
- - - - - - - - - - - - - - - - - - - - - - - - - - -
riff 1
E|-------------------------|
B|-------------------------|
G|------------9--------7b--|           repeat X4
D|--7/9--7h9-----7--9------|
A|-------------------------|
E|-------------------------|
- - - - - - - - - - - - - - - - - - - - - - - - - - -
After Riff
E|--------------------------|
B|----------10--9-----------|
G|--9--10----------10--9hd--|
D|--------------------------|
A|--------------------------|
E|--------------------------|
- - - - - - - - - - - - - - - - - - - - - - - -
E|---------------------------------------|
B|---------12--10--9---------------------|
G|--9--10-------------10--9--------------|
D|---------------------------10--9--7\6--|
A|---------------------------------------|
E|---------------------------------------|
- - - - - - - - - - - - - - - - - - - - - - - -
E|-------------------------------|
B|-------------------------------|
G|-----7--5--7/9--9p7--5---------|
D|--7---------------------7p6h7--|
A|-------------------------------|
E|-------------------------------|
- - - - - - - - - - - - - - - - - - - - - - - - - - -
E|---------------------------------------------------|
B|-------------8--7----------------------------------|
G|--9--9--7h9--------9--7-----7h9--7h9--10--9--7bhd--|
D|-------------------------9-------------------------|
A|---------------------------------------------------|
E|--------------------------------------------------|
- - - - - - - - - - - - - - - - - - - - - - - - - - -
E|---------------------------------|
B|---------------------------------|
G|--7--9h10------------9--7--------|
D|-----------10--9--7--------7bhd--|
A|---------------------------------|
E|---------------------------------|
- - - - - - - - - - - - - - - - - - - - - - - - - - - - -
Riff 2
E|--------------------------------------------------------|
B|--------------------------------------------------------|
G|--9--7--9--7--9--7--------------------9--7--9--7\5/7hd--|
D|--------------------9--7--9--7--9--7--------------------|
A|--------------------------------------------------------|
E|--------------------------------------------------------|
- - - - - - - - - - - - - - - - - - - - - - - - - - - - -
Outro
E|---------------------------12--10-------------|
B|--13--13--12b--12--10--12----------12--10bhd--|
G|----------------------------------------------|
D|----------------------------------------------|
A|----------------------------------------------|
E|----------------------------------------------|
- - - - - - - - - - - - - - - - - - - - - - - - -
Tap to rate this tab
 
# A B C D E F G H I J K L M N O P Q R S T U V W X Y Z