Song name
# A B C D E F G H I J K L M N O P Q R S T U V W X Y Z

Misc Unsigned Bands - Howie Stuwart - Sunshine tab

Help us improve GuitareTab! Take a short survey!
This is my first tab!!

I got the idea from Newton Faulkner!!

Standard tuning.

e||----2222222222222222-3333333333333333-0000000000000000-0000000000000000|
B||--------------------------------------3333333333333333-2222222222222222|
G||-----------------------------------------------------------------------|
D||-----------------------------------------------------------------------|
A||-----------------------------------------------------------------------|
E||-----------------------------------------------------------------------|

e||----2222222222222222-3333333333333333-0000000000000000-0000000000000000|
B||----3333333333333333-3333333333333333-3333333333333333-2222222222222222|
G||--------------------------------------2222222222222222-2222222222222222|
D||-----------------------------------------------------------------------|
A||-----------------------------------------------------------------------|
E||-----------------------------------------------------------------------|

e||----2222222222222222-3333333333333333-0000000000000000-0000000000000000|
B||----3333333333333333-3333333333333333-3333333333333333-2222222222222222|
G||----2222222222222222-2222222222222222-2222222222222222-2222222222222222|
D||----0000000000000000-0000000000000000----------------------------------|
A||-----------------------------------------------------------------------|
E||-----------------------------------------------------------------------|

e||----2222222222222222-2222222222222222--------2-2---3---5-5---3-----0---|
B||----3333333333333333-1111111111111111----------------------------------|
G||----2222222222222222-2222222222222222----------------------------------|
D||-----------------------------------------------------------------------|
A||-----------------------------------------------------------------------|
E||-----------------------------------------------------------------------|

e||----2222222222222222-3333333333333333-0000000000000000-0000000000000000|
B||----3333333333333333-3333333333333333-3333333333333333-2222222222222222|
G||----2222222222222222-2222222222222222-2222222222222222-2222222222222222|
D||----0000000000000000-0000000000000000-0000000000000000-0000000000000000|
A||-----------------------------------------------------------------------|
E||-----------------------------------------------------------------------|

e||----2222222222222222-3333333333333333-0000000000000000-0000-0-0-0-0--0-|
B||-----------------------------------------------------------------------|
G||-----------------------------------------------------------------------|
D||-----------------------------------------------------------------------|
A||-----------------------------------------------------------------------|
E||-----------------------------------------------------------------------|

e||-----------2-----------------------------------------------------------|
B||-----------3-----------------------------------------------------------|
G||-----------2-----------------------------------------------------------|
D||-----------0-----------------------------------------------------------|
A||-----------------------------------------------------------------------|
E||-----------------------------------------------------------------------|

And thats it,enjoy!!
Related for Howie Stuwart - Sunshine tab