Song name
# A B C D E F G H I J K L M N O P Q R S T U V W X Y Z

Misc Unsigned Bands - Captain Funk - Ups And Downs tab

|-16\12---14\10-----12\8--------9\3---------7\1--------5/1-------4-3-2-1-0~-|
|---------------------------------------------------------------------------|
|---------------------------------------------------------------------------|
|---------------------------------------------------------------------------|
|---------------------------------------------------------------------------|
|---------------------------------------------------------------------------|

Intro verse 2:


|--------------------------------------------------------------------------|
|--------------------------------------------------------------------------|
|----14----13----12----11----10---------14----13----12----11----10---------|
|-12----12----12----12----12----11---12----12----12----12----12----11-10---|
|--------------------------------------------------------------------------|
|--------------------------------------------------------------------------|

|---------------------------------------------------------------------------|
|---------------------------------------------------------------------------|
|---14----13----12----11----10---------------------14----13----12----11-----|
|12----12----12----12----12----11-10-11-10-11---12----12----12----12----12--|
|---------------------------------------------------------------------------|
|---------------------------------------------------------------------------|

|------------------|
|------------------|
|-10---------------|   X2
|----11--12--10~~~~|
|--------10---8~~~~|
|------------------|
Tap to rate this tab
# A B C D E F G H I J K L M N O P Q R S T U V W X Y Z