Song name
# A B C D E F G H I J K L M N O P Q R S T U V W X Y Z

Misc Unsigned Bands - Toward Death I Crawl - Metalcaust tab

Help us improve GuitareTab! Take a short survey!
Band: Metalcaust
Song: Toward Death I Crawl

Intro (Clean) x2
D|-----------------------------------------------------|
A|-----------------------------------------------------|
F|-----------------------------------------------------|
C|-----------------------------------------------------|
G|---2---3~-------2---3~/5~-----2---3~-------2---3~\0~-|
C|-2---2--------2---2---------2---2--------2---2-------|

(Distorted) x2
D|-----------------------------------------------------|
A|-----------------------------------------------------|
F|-----------------------------------------------------|
C|-----------------------------------------------------|
G|---2---3~-------2---3~/5~-----2---3~-------2---3~\0~-|
C|-2---2--------2---2---------2---2--------2---2-------|

Verse 1 (clean) x4
D|----------------------------------------------------------------|
A|----------------------------------------------------------------|
F|----------------------------------------------------------------|
C|-----2-----2-----2-----0-----0--------2-----2-----2-----0-----0-|
G|---2-----3-----2-----0-----0---0----2-----3-----2-----0-----0---|
C|-2-----2-----2-----2-----0--------2-----2-----2-----2-----0-----|

Chorus (Distorted) x4
D|-------------------------------------------------------------------|
A|-------------------------------------------------------------------|
F|-------------------------------------------------------------------|
C|-2-2-2-2-2-2-2-2-2-2-2-2-2-2-2-2-3-3-3-3-3-3-3-3-6-6-6-6-5-5-5-5-5-|
G|-0-0-0-0-0-0-0-0-0-0-0-0-0-0-0-0-1-1-1-1-1-1-1-1-4-4-4-4-3-3-3-3-3-|
C|-------------------------------------------------------------------|

Verse 2 (Distorted) x4
D|----------------------------------------------------------------|
A|----------------------------------------------------------------|
F|----------------------------------------------------------------|
C|-----2-----2-----2-----0-----0--------2-----2-----2-----0-----0-|
G|---2-----3-----2-----0-----0---0----2-----3-----2-----0-----0---|
C|-2-----2-----2-----2-----0--------2-----2-----2-----2-----0-----|
p.m. . . . . . . . . . . . . . . .  . . . . . . . . . . . . . .

Chorus (Distorted) x2
D|-------------------------------------------------------------------|
A|-------------------------------------------------------------------|
F|-------------------------------------------------------------------|
C|-2-2-2-2-2-2-2-2-2-2-2-2-2-2-2-2-3-3-3-3-3-3-3-3-6-6-6-6-5-5-5-5-5-|
G|-0-0-0-0-0-0-0-0-0-0-0-0-0-0-0-0-1-1-1-1-1-1-1-1-4-4-4-4-3-3-3-3-3-|
C|-------------------------------------------------------------------|

Verse 2 (Distorted) x4
D|----------------------------------------------------------------|
A|----------------------------------------------------------------|
F|----------------------------------------------------------------|
C|-----2-----2-----2-----0-----0--------2-----2-----2-----0-----0-|
G|---2-----3-----2-----0-----0---0----2-----3-----2-----0-----0---|
C|-2-----2-----2-----2-----0--------2-----2-----2-----2-----0-----|
p.m. . . . . . . . . . . . . . . .  . . . . . . . . . . . . . .

Chorus (Distorted) x4
D|-------------------------------------------------------------------|
A|-------------------------------------------------------------------|
F|-------------------------------------------------------------------|
C|-2-2-2-2-2-2-2-2-2-2-2-2-2-2-2-2-3-3-3-3-3-3-3-3-6-6-6-6-5-5-5-5-5-|
G|-0-0-0-0-0-0-0-0-0-0-0-0-0-0-0-0-1-1-1-1-1-1-1-1-4-4-4-4-3-3-3-3-3-|
C|-------------------------------------------------------------------|

(Clean) x2
D|-----------------------------------------------------|
A|-----------------------------------------------------|
F|-----------------------------------------------------|
C|-----------------------------------------------------|
G|---2---3~-------2---3~/5~-----2---3~-------2---3~\0~-|
C|-2---2--------2---2---------2---2--------2---2-------|

Outro
D|-----------------------------------------------------------|
A|-----------------------------------------------------------|
F|-----------------------------------------------------------|
C|-----------------------------------------------------------|
G|-0-0-0-0-0-0-0-0-0-0-0-0-0-0-0-0-0-0-0-0-0-0-0-0-0-0-0-0-0-|
C|-0-0-0-0-0-0-0-0-0-0-0-0-0-0-0-0-0-0-0-0-0-0-0-0-0-0-0-0-0-|
p.m. . . . . . . . . . . . . . . . . . . . . . . . . . . .

Outro Riff 1 x2
D|----------------------------------------------------------------------------|
A|----------------------------------------------------------------------------|
F|----------------------------------------------------------------------------|
C|----------------------------------------------------------------------------|
G|----------------------------------------------------------------------------|
C|-0-0-0-0-5p3p0-5p3p0-0-0-0-0-4h5h6h7~--0-0-0-0-5p3p0-5p3p0-0-0-0-0-4p3p2p1~-|
p.m. . . .             . . . .           . . . .             . . . .

D|----------------------------------------------------------------------------|
A|----------------------------------------------------------------------------|
F|----------------------------------------------------------------------------|
C|----------------------------------------------------------------------------|
G|---------------------------------------------------------------3--2--1------|
C|-0-0-0-0-5p3p0-5p3p0-0-0-0-0-4h5h6h7~--0-0-0-0-5p3p0-5p3p0-0-0-3--2--1------|
p.m. . . .             . . . .           . . . .             . .

Outro Riff 2 x4
D|------------------------------------------------------------|
A|------------------------------------------------------------|
F|------------------------------------------------------------|
C|------------------------------------------------------------|
G|-----------------------------------------------444433331111-|
C|-0000--0000--1111444433332222--0000--0000--1111-------------|


This is Drew, and I'm the Guitarist for Metalcaust
I wrote this song in a hotel room in Oregon
My grandparents had to drag me along to a wedding down there last Summer, and I couldn't 
at all
So I stayed up all night, bored off my ass, and wrote this

This song is about an alcoholic, and how his life just turns to shit
His wife left him because of his drinking problem, and he just slowly crawls towards 
by drinking so much
Related for Toward Death I Crawl - Metalcaust tab