Song name
# A B C D E F G H I J K L M N O P Q R S T U V W X Y Z

Misc Unsigned Bands - Blackline - Wherever tab

this is played through the whole song
, listen for the strumming
e|------------------3------2-3--2------------------------------------------------|
B|---------1--------3------3-3--3------------------------------------------------|
G|--(0)----0-------(0)-----2-2--2------------------------------------------------|
D|--2------2-------(0)-----------------------------------------------------------|
A|--2------3--------2------------------------------------------------------------|
E|--0---------------3------------------------------------------------------------|


this is the bridge part after the chorus
e|-----------------0h2---2-----------------------------------------------------|
B|---------1--------3----------------------------------------------------------|
G|-(0)-----0--------2----------------------------------------------------------|
D|--2------2-------------------------------------------------------------------|
A|--2------3-------------------------------------------------------------------|
E|--0--------------------------------------------------------------------------|


these guys are a signed band but i dont feel like putting up a link right now,
is the link to take you to their myspace.
Tap to rate this tab
# A B C D E F G H I J K L M N O P Q R S T U V W X Y Z