Song name
# A B C D E F G H I J K L M N O P Q R S T U V W X Y Z

Misc Unsigned Bands - Obsessed - Built To Last tab

                       /obsessed\
                       \________/
INTRO 
guitar 1
|-----------------|----------------------|
|-----------------|----------------------|
|-----------------|----------------------|
|-----------------|----------------------|
|-9--7--99-44--7--|-9-9999-7-7777-55-777-|
|-7--5--77-22--5--|-7-7777-5-5555-33-555-|
            X3
guitar 2
|-----------------|
|-----------------|
|-----------------|
|-----------------|
|-9--7--99-7------|
|-7--5--77-5------|
                  

VERSE
guitar 1
|----------------------------------------------|
|----------------------------------------------|
|----------------------------------------------|
|----7-55------7h9-7----------5-33------1h3-1--|
|-55------7-7h9-----7b8b7--33------5-1h3-----1-|
|----------------------------------------------|
                                               X2
guitar 2
|-----------------|
|-----------------|
|-----------------|
|-22--000-55--333-|
|-22--000-55--333-|
|-----------------|
                  X4

CHORUS
both guitars
|--------------------------------|
|--------------------------------|
|--------------------------------|
|-7-7777--5-5555--4-4444--2-2222-|
|-5-5555--3-3333--2-2222--0-0000-|
|--------------------------------|

please note we are working on a chorus riff
Tap to rate this tab
# A B C D E F G H I J K L M N O P Q R S T U V W X Y Z