Song name
# A B C D E F G H I J K L M N O P Q R S T U V W X Y Z

Misc Unsigned Bands - The Premiers - At The Premier tab

    AT THE PREMIER
Music by: the premiers (my band)
Tabbed by; thepremiersband@hotmail.com
key:
\:slide down
/slide up
*:mute
h:hammer 0n
~:bend repeatedly

Intro/verse CLEAN
e--------------------------------|
b--------------------------------|
g-------9-9-------------7-7------|
d-9-9-9-9-9-9-9-9\7-7-7-7-7-7-7-7|*2
a-9-9-9-7-7-9-9-9\7-7-7-5-5-7-7-7|
E-7-7-7-----7-7-7\5-5-5-----5-5-5|
chorus DISTORTION
e------------------|  e----------------------------------|
b------------------|  b----------------------------------|
g-9999999-777-55555|*3g--------------------------------9~|
d-9999999-777-55555|  d-7777777-9999999-777777-9999999-9~|
a-7777777-555 33333|  a-7777777-9999999-777777-9999999-7~|
E------------------|  E-5555555-7777777-555555-7777777---|
Verse2 DISTORTION
e---------------------|
b---------------------|
g----9*---------5*----|*2
d-9**9*-9**-5**-5*-7**|
a-9**7*-9**-5**-7*-7**|
E-7**---7**-7**----5**|
bridge Distortion
e-------------------------|
b-------------------------|
g-----------------9999999-|*2
d-9999999-7777777-9999999-|
a-9999999-7777777-7777777-|
E-7777777-5555555---------|
solo! Heavy Distoretion
e-12-12-10-12-12-10-12-10------------------------12h10-----12h10-----12h10-|
b-------------------------12-12-10-12-12-10-12-10-----12h10-----12h10------|
g--------------------------------------------------------------------------|
d-------------------------=------------------------------------------------|
a--------------------------------------------------------------------------|
E--------------------------------------------------------------------------|
solo(contd.)
e-12~~~12~~~12~~~--| *PICK Slide*
b------------------| up and down neck
g------------------|
d-----------------9|
a-----------------9|
E-----------------7|
outro distortion
e-------------------------|
b-------------------------|
g----9*------5*------7----|
d-9**9*9**5**5*7**-7-7-7/9|
a-9**7*9**5**7*7**-7-5-7/9|
E-7**--7**7**--5**-5---5/7|

order:
intro verse
corhus
verse
corus
bridge
solo
outro
EMAiL ME IF U HAVE QUESTIONS OR COMMENTS at Thepremiersband@hotmail.com
Tap to rate this tab
# A B C D E F G H I J K L M N O P Q R S T U V W X Y Z