Song name
# A B C D E F G H I J K L M N O P Q R S T U V W X Y Z

Misc Unsigned Bands - Sludges Underground - Hostal tab

Help us improve GuitareTab! Take a short survey!
Yo, this is a awesome song called hostal. so drop your top string to d and turn up that gain...

Intro...
E:--------------------------------------------------------------|
B:--------------------------------------------------------------|
G:--------------------------------------------------------------|
D:-----------6-------------------------6-------7----------------|
A:-----8-----------7-----5-------8-----------8------7-----------|
D:-00-----5-----00----6------00-----5------------8----009*------|

E:-------------------------------------------------------------|
B:-------------------------------------------------------------|
G:-------------------------------------------------------------|
D:-------------------------------------------------------------|
A:-------------------------------------------------------------|
D:-000000--000000--000000--000000--00-000--9*------------------|

E:------------------------------------|
B:------------------------------------|
G:------------------------------------|
D:------------------------------------|
A:----5----------6-------7---9-9-8*---|
D:3b-------4b--------5b---------------|

that is the basic song!!!! but go back to the main riff!!!
Related for Sludges Underground - Hostal tab