Guitaretab - guitar tabs
Song name
# A B C D E F G H I J K L M N O P Q R S T U V W X Y Z

Misc Unsigned Bands - Dear Juliet - Turn Back The Time tab

www.myspace.com/dearjuliet

standard tuning

|--0----\
|--1-----\
|--0------\ Palm Mute x3
|--2------/
|--3-----/
|--3----/

|--0-0-0--0-0-0--3---|
|--1-1-1--1-1-1--3---|
|--0/2\0--0-0-0--0---|
|--3-3-3--0/2\0--0---|
|--3-3-3--3-3-3--2---|
|---------3-3-3--3---|
repeat throughout the verses 

(listen to the song for the strumming patterns)


|--0-0-0--0-0-0--0---|
|--1-1-1--1-1-1--0---|
|--0/2\0--0-0-0--0---|
|--3-3-3--0/2\0--5---|
|--3-3-3--3-3-3--5---|
|---------3-3-3--3---|
(right before the chorus)


|--0--0--0--0--|
|--0--1--1--0--|
|--0--2--0--0--|
|--3--3--2--5--|
|--3--3--3--5--|
|--1--0--3--3--|
(chorus)

[ Tab from: http://www.guitaretab.com/m/misc-unsigned-bands/106998.html ]
lyrics-

Do you know how much you meant to me?
Oh no
Do you know I still carry the memories?
Oh no
Did you know that for me letting go wasn't easy?
Oh no, no you don't

Do you still listen to our lullaby?
Oh no
Does it help you get to sleep at night?
Oh no
Are you singing along by the pale moonlight?
Oh no, no you don't

I just need a bit more time
To get you off my mind tonight
I'm thinking of your bright blues eyes,
Brighter than the stars that lit the skies,
An angel in disguise

I just need a bit more time
I wanna hold you in my arms tonight
I can't forget those bright blue eyes,
Can't forget the moment they met mine
Please turn back the time.
Related for Dear Juliet - Turn Back The Time tab
Advertisement will be closed in 10 seconds