Song name
# A B C D E F G H I J K L M N O P Q R S T U V W X Y Z

Misc Unsigned Bands - Standing Alone - War Within tab

Help us improve GuitareTab! Take a short survey!
This is by Standing Alones Rythm Guitarist so this is it!!

Intro:
1----------------------------------------------------|
2----------------------------------------------------|
3----------------------------------------------------|
4----------------------------------------------------|
5-11----6----8----4--6-------------------------------|
6--9----4----6----2--4-------------------------------|
x2

Verse 1:
1-----------------------------------------------------|
2-----------------------------------------------------|
3-----------------------------------------------------|
4-----------------------------------------------------|
5-1111111111111111-66666666-88888888-4444-6666--------|
6--9-9-9-9-9-9-9-9-44444444-66666666-2222-4444--------|
x2

Verse 2:
1------------------------------------------------------|
2------------------------------------------------------|
3------------------------------------------------------|
4------------------------------------------------------|
5-77777777-99999999-77777777-9-------------------------|
6-55555555-77777777-55555555-7-------------------------|

Riff 1:
1-------------------------------------------------------|
2-------------------------------------------------------|
3-------------------------------------------------------|
4-------------------------------------------------------|
5-1111111111111111-777777779999997799999999-------------|
6--9-9-9-9-9-9-9-9-777777777777777777777777-------------|
x2

Riff 2:
1-------------------------------------------------------|
2-------------------------------------------------------|
3-------------------------------------------------------|
4-------------------------------------------------------|
5-1111--77--99--99--------------------------------------|
6--9-9--55--77--77--------------------------------------|
x2

Riff 3:
1-------------------------------------------------------|
2-------------------------------------------------------|
3-------------------------------------------------------|
4-------------------------------------------------------|
5-11-11-11-11-7-7-7-7-9-9-9-9-9-9-9-9-------------------|
6--9--9--9--9-5-5-5-5-7-7-7-7-7-7-7-7-------------------|
x2

Riff 4:
1-------------------------------------------------------|
2-------------------------------------------------------|
3-------------------------------------------------------|
4-------------------------------------------------------|
5-1111--77--99999999-1111--77--9------------------------|
6--9-9--55--77777777--9-9--55--7------------------------|

Heres all of it so far!!
Related for Standing Alone - War Within tab