Song name
# A B C D E F G H I J K L M N O P Q R S T U V W X Y Z

Misc Unsigned Bands - Fc Five - My Strife tab

FC Five - My Strife
tabbed by: Nicholas Wong 
E-mail: breakthesilencewakethedead@gmail.com

Standard Tuning

Intro: (You wish me any pain...)
|----|
|----|
|----|
|-0~-| x4
|-0~-|
|-0~-|

|--------------|
|-7-55-7-55-7~-|
|--------------|
|--------------|
|--------------|
|--------------|
    ..   ..

Verse: x2
Guitar 1:
|---------------------------------------------------|
|-----7-----------10-----------7-----------10-------|
|-7-9---9-7--9-11----11-9--7-9---9-7--9-11----11-9--|
|---------------------------------------------------|
|---------------------------------------------------|
|---------------------------------------------------|

|----------------------------------------------------------|
|-1212121212121212-101010101010-121212121212-7777-10101010-|
|----------------------------------------------------------|
|----------------------------------------------------------|
|----------------------------------------------------------|
|----------------------------------------------------------|

Guitar2: (figure out the strumming pattern yourself)
|-------|
|-------|
|-------|
|-0--5--|
|-0--5--|
|-0--5--|

Repeat Intro

Repeat Verse

Breakdown
|------------------------------------------------------------|
|---------------------10---------------------------10--------|
|------------------------11-9-------------------------11-9-7-|
|-0-----0-----0-----0----------0-----0-----0-----0-----------| x2
|-0-00000-0-0-0-0-0-0----------0-00000-0-0-0-0-0-0-----------|
|-0-00000-0-0-0-0-0-0----------0-00000-0-0-0-0-0-0-----------|
    ....  . .   . .              ....  . .   . .              

|---------------------------------------------------------------|
|-----------------------10----------------------------10--------|
|--------------------------11-9--------------------------11-9-7-|
|---------------------------------------------------------------| x2
|-0-0-0-0-0-0-0-0-0-0-0---------0-0-0-0-0-0-0-0-0-0-0-----------|
|-0-0-0-0-0-0-0-0-0-0-0---------0-0-0-0-0-0-0-0-0-0-0-----------|
  . . . . . . . . . . .         . . . . . . . . . . . 

repeat intro 

done.

~ - let it ring
. - palm muted

www.myspace.com/fcfive
Tap to rate this tab
# A B C D E F G H I J K L M N O P Q R S T U V W X Y Z