Song name
# A B C D E F G H I J K L M N O P Q R S T U V W X Y Z

Misc Unsigned Bands - The Moonmen - Tsjempe Krabbo tab

Dette er en fantastisk, norsk sang av studentgruppa "The Moonmen" fra Akershus. Teksten 
på sørlands-dialekt!!!

Hele sangen går i Am og C men avsluttes med 5 tilfeldige akkorder. F.eks: Hm7, F, A7, 
D og Cadd9. Dette velger jo du helt selv!

Slik går introen:

       Am                            C
|----------------------------------------------------------------------|e
|---------------0>1--------------------------0>1-----------------------|h
|--------2-----------2------2----------0----------0-----0--------------|g
|-----2-----2-----------2-----------2-----2----------2-----------------|d
|--0------------------------------3------------------------------------|a
|----------------------------------------------------------------------|E

       Am
|----------------------------------------------------------------------|e
|---------------0>1----------------------------------------------------|h
|--------2-----------2------2------------------------------------------|g
|-----2-----2-----------2----------------------------------------------|d
|--0---------------------------3---------------------------------------|a
|----------------------------------------------------------------------|E

Vers:

       Am                            C
|----------------------------------------------------------------------|e
|---------------0>1--------------------------0>1-----------------------|h
|--------2-----------2------2----------0----------0-----0--------------|g
|-----2-----2-----------2-----------2-----2----------2-----------------|d
|--0------------------------------3------------------------------------|a
|----------------------------------------------------------------------|E
 X6

------------------------------------------------------
Eg satt på bryggo, og fiska krabbo
eg så ein tsjempe krabbo! Men det var itsje no krabbo!
eg så ein tsjempe krabbo! Men det var itsje no krabbo!

[HER ER DET IKKE FINGERSPILL]
Det var ein (sild, laks, torsk, flyndre, hai, hammerhai, hval, blåhval)
------------------------------------------------------------------------

Teksten skal egentlig gjennomgå alle levende vesner under vann, men vi forkorter det med 8 arter!
Tap to rate this tab
# A B C D E F G H I J K L M N O P Q R S T U V W X Y Z