Song name
# A B C D E F G H I J K L M N O P Q R S T U V W X Y Z

Misc Unsigned Bands - Mr Ramos - Darkshadow tab

e--------------------------|
B--------------------------|
G--------------------------|
D-----------4--------------|
A----0-4-2-4-2-0-0-2-0-----|
E-2-4-----------------4-2--|

e-----------------------------|
B-----------------------------|
G-----------------------------|
D-----------------------------|
A----0-4-2-4-5-5p4-2-0--------|
E-2-4-----------------4-2-0-2-|

e--------------------------|
B--------------------------|
G--------------------------|
D------------4-------------|
A----0-4-2-4--4-5-4-0-4----|
E-2-4----------------4-----| x2

e----------------------------------|
B----------------------------------|
G----------------------------------|
D-4-4-2-0-0------------------------|
A----------4-2-0-4-0-2-4-0---------|
E-------------------------4-2-0-2--|

e--------------------------------------------------5-|
B-----------------------------------------------5-4--|
G------------------------------2-4-5-4-2-0-2-4-5-----|
D-------------------------2-4-0----------------------|
A--------------2-4-2-4-5-4---------------------------|
E-4-5-4-5--------------------------------------------|

e-5-7-3-0------|
B--------7-9-2-|
Tap to rate this tab
 
# A B C D E F G H I J K L M N O P Q R S T U V W X Y Z