Song name
# A B C D E F G H I J K L M N O P Q R S T U V W X Y Z

Misc Unsigned Bands - Balance Problems - Iowa tab

Help us improve GuitareTab! Take a short survey!
-------------------------------------------------------------------------------
Iowa  Balance Problems
-------------------------------------------------------------------------------
Tabbed by: Pete Hoover
Email: Pete(dot)Hoover(at)gmail.com

Tuning: E-A-D-G-B-D, Capo 9

d|--------------------0--------0------------------------0------0--------------|
B|-------------------------0--------0-------0-------0------0-------0----------|
G|---0-------0----------2--------2------2-------2--------2-------2------------|
D|-------0-------0------------------------0-------0---------------------------|
A|------------------2--------2--------0-------0-------3------3----------------|
E|-3---3---3---3--------------------------------------------------------------|

This riff is basically repeated throughout the song, with minor variations except in 
bridge. I have not tabbed that out though, so if you have email me and Ill add it.
Related for Balance Problems - Iowa tab