Song name
# A B C D E F G H I J K L M N O P Q R S T U V W X Y Z

Misc Unsigned Bands - The One They Call - Dragged Through The Mud To Safety tab

This isn't acoustic but it could be played that way i guess

(Intro)
e|-----------------------------------|
B|-----------------------------------|
G|-----------------------------------|
D|-----------------------------------|        x6
A|0-00-0~00-0~00-00-0--3h5p3---------|
D|0-00-0~00-0~00-00-0--3h5p3---------|
pm. ..   ..   .. .. .


(Lead) after x3 of intro
e|----------------------------------------------------
B|5/777/999/101010/121212/141414/151515/171717-17^-17^
G|----------------------------------------------------|
D|----------------------------------------------------|
A|----------------------------------------------------|
D|----------------------------------------------------|

(Verse) both guitars
e|-----------------------------------------|
B|-----------------------------------------|
G|-----------------------------------------|
D|-----------------------------------------|              x8
A|0-00-0~00-0~00-00-0--3h5p3---------------|
D|0-00-0~00-0~00-00-0--3h5p3---------------|
pm. ..   ..   .. .. .

Prechorus
e|------------------------------------------|
B|------------------------------------------|
G|------------------------------------------|
D|3-33333/6-66666\5-5p0-5p0-0-5p0-5p0-------|      x2
A|3-33333/6-66666\5-5p0-5p0-0-5p0-5p0-------|
D|3-33333/6-66666\5-5p0-5p0-0-5p0-5p0-------|

Chours
e|------------------------------------------|
B|------------------------------------------|
G|------------------------------------------|
D|0-0-00-0-0-00-0-0-00-0~0h3h5/6\5-3--------|       x4
A|0-0-00-0-0-00-0-0-00-0~0p3h5/6\5-3--------|
D|0-0-00-0-0-00-0-0-00-0~0h3h5/6\5-3--------|

Post-Chorus
e|-----------|
B|-----------|
G|-----------|
D|0h3h5h6p5p3~         x4
A|0h3h5h6p5p3~
D|0h3h5h6p5p3~

Solo
e|-----------------------------------------------|
B|5/9-5/9-5/9-9-10-12-12br~----------------------|
G|--------------------------9-10-12-12^-12-10-9~-|
D|-----------------------------------------------|
A|-----------------------------------------------|
D|-----------------------------------------------|

Solo Cont.
e|--------------------------------------------------------|
B|--------------------------------------------------------|
G|--------------------------------------------------------|
D|9-9-10-12-10^-9-9-10-12-10^-9-9-10-12-10^-9-9-7-6-4/6\2-|
A|--------------------------------------------------------|
D|--------------------------------------------------------|

Ending
e|---------|
B|---------|
G|---------|
D|6-5-3-0~-|
A|6-5-3-0~-|
D|6-5-3-0~-|

Song order
Intro x6
Lead after 3rd time
verse x8
prechours x2
chorus x4
post chours x4
verse x4
prechorus x2
chorus x4
post chours x4
verse x4 with Solo
chorus x8
post chorus x2
Ending x1
Tap to rate this tab
# A B C D E F G H I J K L M N O P Q R S T U V W X Y Z