Song name
# A B C D E F G H I J K L M N O P Q R S T U V W X Y Z

Misc Unsigned Bands - Alex Young - New Shit tab

|Intro| 0:00-0:34
                                                  
|--------------------------------------------------||
|--------------------------------------------------||
|*------------------------------------------------*||
|*------------------------------------------------*||
|--------------------------------------------------||
|--0-0-0-0-------0-0-0-0-0-0-0-0-------------------||


|Intro Variation| 0:34-0:40

|--------------------------------------------------||
|--------------------------------------------------||
|*------------------------------------------------*||
|*------------------------------------------------*||
|--0-0-0-0-------0-0-0-0-0-0-0-0-------------------||
|--1-1-1-1-------1-1-1-1-1-1-1-1-------------------||


|Let Ring|

|------------------||
|------------------||
|*----------------*||
|*---0------------*||
|----0-------------||
|----0-------------||


|Verse| 0:50-1:19

|------------------------------------------------------------||
|------------------------------------------------------------||
|*----------------------------------------------------------*||
|*-------------------------------7---5----------------------*||
|-------10---8-------5---7---------------------8----7h8p7-5--||
|---0-0----0---0-8-8---8---8-5-5---5---5-10-10---10----------||


|Verse End|

|---------------------------||
|---------------------------||
|*-------------------------*||
|*---0--2--3--7------------*||
|----0--2--3--7-------------||
|----0--2--3--7-------------||



|---------------------------------------------------------------||
|---------------------------------------------------------------||
|*-------------------------------------------------------------*||
|*---12/-------------------------------------------------------*||
|----12/-----------\8-7-----------\12-11------------------------||
|----12/--000-000--\8-7--777-777--\12-11--111111-111111-111111--||


|-------------------------------------||
|-------------------------------------||
|*-----------------------------------*||
|*---------------------------/12-----*||
|----------------------------/12------||
|----88888888888121212121212-/12------||



|-----------------------------------------------------------||
|-----------------------------------------------------------||
|*---------------------------------------------------------*||
|*-----------------------------7-7--------10-10------------*||
|------------------------------5-4---------8--7-------------||
|---8-7-5-7-5-3-5-3-0--000-000-----000-000------000-000-000-||



|-----------------------------------------------------------||-----------------------------------||
|-----------------------------------------------------------||-----------------------------------||
|*-7-------------------------------------------------------*||---------------------/7------------||
|*-7-------------------------------------------------------*||---------------------/7------------||
|--5--------------------------------------------------------||---------------------/5------------||
|-----000-000-000-000-000-888777-000-000-000-000-000-888777-||---8-7-5-3-5-7-5-3-1---------------||




|-------------------------------------------------------||
|-------------------------------------------------------||
|*--7---------10---------5-----------------------------*||
|*--7---------10---------5---------10-10-8-8-7-7-------*||
|---5---------8----------3-----------------------8-8----||
|------000-0------000-0-----000-0-----------------------||




|-----------------------||----------------------------------------------||
|-----------------------||----------------------------------------------||
|*---------------------*||----------------------------------------------||
|*---------------------*||----------------------------------------------||
|--7h8p7----------10-8--||----------------------------------------------||
|--------8-7-8-10-------||--1b-000-000-000-000-888777-1b-000-000-000----||



|--------||
|--------||
|*------*||
|*-0--/-*||
|--0--/--||
|--0--/--||



|------------------------------------||
|------------------------------------||
|*----------------------------------*||
|*----------------------------------*||
|--000--0-0-0---0-0-0--000--0-0-0----||
|--111--0-0-0---0-0-0--111--0-0-0----||



|-------------------------------------||
|-------------------------------------||
|*-----------------------------------*||
|*-----------------------------------*||
|--1-1-1-1--1-1-1-1-1-1-1--1-1-1------||
|--1-1-1-1--1-1-1-1-1-1-1--1-1-1------||
Tap to rate this tab
# A B C D E F G H I J K L M N O P Q R S T U V W X Y Z