Song name
# A B C D E F G H I J K L M N O P Q R S T U V W X Y Z

Misc Unsigned Bands - Blood Behind Your Eyes - Despise Dishonor Dispose tab

-------------------------|
-------------------------|GTR1
-------------------------|
------5---3-----2--------|
--8-7---7---5-4---4-1-X5-|
0------------------------|
.

----------------------------|
----------------------------|GTR2
----------------------------|
--------8------7-----5------|
--12-10---10-8---8-7---4-X4-|
0---------------------------|
.

-------------------------------------|
-------------------------------------|
-------------------------------------|
-------------------------------------|
0000-000-00----0000-000-5`--Gtr.2=7`-|
0000-000-00-X3-0000-000--------------|
.... ... ..    .... ...

--------------------------|
--------------------------|
--------------------------|
--------------------------|
0000-000-00----0000-0001--|
0000-000-00-X3-0000-0001--|
.... ... ..    .... ...

----------------------------------------------------|GTR1
----------------------------------------------------|
----------------------------------------------------|
---------------------------------------------8-7----| X4
------------5-------------4-------------3--5-----4*-|
000-000-8-7---000-000-7-5---000-000-7-4-------------|
... ...       ... ...       ... ...        T T T

----------------------------------------------------------------|GTR2
----------------------------------------------------------------|
----------------------------------------------------------------|
------------------------------------------------------15-14-----| X2
--------------12---------------11---------------10-12-------11*-|
000-000-15-14----000-000-14-12----000-000-14-11-----------------|
... ...          ... ...          ... ...          T  T  T

--------------------------------------------------------------------|GTR1
--------------------------------------------------------------------|
--------------------------------------------------------------------|
----------------7---10---8---5---13----10----12----------8----------|
5---7---8---5--------------------------------------15---------12----|
--0---0---0---0---8----8---7---7----12----12----15----15---12----12-|
  .   .   .   .   .    .   .   .    .     .     .     .    .     .

-------------------------------------------------------------------|GTR2
-------------------------------------------------------------------|
-------------------------------------------------------------------|
-0--------------7----------------1-----------0-----------8---------|
-0--------------7----------------1-----------0-----------8---------|
-0--------------7----------------1-----------0-----------8---------|

--------|
--------|
--------|
--------|
7-5-3-2-|
7-5-3-2-|
. . . .

-------------------------------------------------------------|GTR.1
-------------------------------------------------------------|
-------------------------------------------------------------|
0-------------1h4------3h6------4h7------6h9-----------------|
0--0-0-----1h4------3h6------4h7------6h9-------9h12----8h11-|
0--0-0--1h4------3h6------4h7------6h9------9h12----8h11-----|
   . .
------------------------------------------------------------------------|GTR.2
------------------------------------------------------------------------|
------------------------------------------------------------------------|
0-------------4h7------6h9---------7h10--------9h12---------------------|
0--0-0-----4h7------6h9--------7h10--------9h12---------12h15-----11h14-|
0--0-0--4h7------6h9-------7h10--------9h12--------12h15-----11h14------|
   . .

-----------------------------------------------------------------|GTR1
-----------------------------------------------------------------|
-----------------------------------------------------------------|
-----------------------------------------------------------------|
0--00-----4h7---3h6-0--00-----1h4-1*-0--00-----4h7---3h6-0--00-4-|
0--00--4h7---3h6----0--00--1h4-------0--00--4h7---3h6----0--00---|
.  ..               .  ..            .  ..               . ..

---------------------------------------------------------------------|GTR2
---------------------------------------------------------------------|
---------------------------------------------------------------------|
---------------------------------------------------------------------|
0--00------7h10---6h9-0--00-----3h6-3*-0--00------7h10---6h9-0--00-7-|
0--00--7h10----6h9----0--00--3h6-------0--00--7h10----6h9----0--00---|
.  ..                 .  ..            .  ..                 .  ..

---------------------------------------------|
---------------------------------------------|
---------------------------------------------|
----10-8-7------8-7-5-----7-5-3--2-----------|
------------10---------8-----------3-2-1-----|
-7---------------------------------3-2-1-----|
 .          .          .

1., 3.
-----------------|
-----------------|
-----------------|
-----------------|
-0------000-0-00-|
-0------000-0-00-|
 .      ... . ..

2., 4.
----------------------|
----------------------|
----------------------|
----------------------|
-0-----------000-0-00-|
-0-----------000-0-00-|
 .           ... . ..

----------------------------------|
----------------------------------|
----------------------------------|
-333-3-33-666-6-66-111111-11-1111-|
-222-2-22-555-5-55-101010-10-1010-|
-111-1-11-444-4-44-9-9-9--9--9-9--|
 ... . .. ... . ..

-------------------------------------------|
-------------------------------------------|
-------------------------------------------|
----8-7-8-----7-5-7-----5-3-5-----3-2-3----|X2(2nd time slow down half way)
-555-5-5-5-333-3-3-3-111-1-1-1-000-0-0-0---|
-------------------------------------------|
 ... . . . ... . . . ... . . . ... . . .

-------------------------------------------------------------|GTR1
-------------------------------------------------------------|
-------------------------------------------------------------|
----------8-7-8----------7-5-7----------5-3-5----------3-2-3-|
-0------5-------0------3-------0------1-------0------0-------|
-0--------------0--------------0--------------0--------------|
 .              .              .              .

--------------------------------------------------------------|
--------------------------------------------------------------|GTR1
--------------------------------------------------------------|2nd time
----------8-7-8----------7-5-7----------5-3-5---------3-2-3-2-|
-0------5-------0------3-------0------1-------0---------------|
-0--------------0--------------0--------------0---------------|
 .         .          .         .

--------------------------------------------------------------|GTR2
--------------------------------------------------------------|2nd time
----------8-7-8----------7-5-7----------5-3-5---------3-2-3-2-|
--------------------------------------------------------------|
-0------5-------0------3-------0------1-------0---------------|
-0--------------0--------------0--------------0---------------|
 .    ..        .    ..        .    ..        .

--------------------------|
--------------------------|
-----9-10*----------------|
9-10----------------------|
----------------12h16-0---|
-----------12h16------0---|
                      .
Tap to rate this tab
# A B C D E F G H I J K L M N O P Q R S T U V W X Y Z