Song name
# A B C D E F G H I J K L M N O P Q R S T U V W X Y Z

Misc Unsigned Bands - Frog Eyes - Bushels tab

CHORDS:

     C     Am     F

e|--0------0------1--------|
B|--1------1------1--------|
G|--0------2------2--------|
D|--2------2------3--------|
A|--3------0------3--------|
E|----------------1--------|


Riff 1
e|--------------------|      
B|--------------------|
G|--------------------|
D|--------------------|
A|--3-3--2-2----------|
E|-----------3-3------|

        OR
e|--------------------|
B|-1-1-0-0------------|
G|---------0-0--------|
D|--------------------| or any other octaves above or below those.
A|--------------------|
E|--------------------|

Solo:
e|-------12-12----12----12-15-------12----15p12--------13-----15p13------|
B|-12-12-------12----12----------12----12-------12--13----13--------13---|
G|-----------------------------------------------------------------------|
D|-----------------------------------------------------------------------|
A|-----------------------------------------------------------------------|
E|-----------------------------------------------------------------------|

e|----13----17-----10-------17-10----10-------17-17--13-12---------------|
B|-13----13-----10----10-17-------10----10-17--------------13-13-10------|
G|------------------------------------------------------------------10---|
D|-----------------------------------------------------------------------|
A|-----------------------------------------------------------------------|
E|-----------------------------------------------------------------------|

e|-17-15-13----------12-15-12-----------12-15-12----------12-15-12-------|
B|----------------12----------12-----12----------12----12----------12----|
G|-----------------------------------------------------------------------|
D|-------------14-----------------14----------------14----------------14-|
A|-----------------------------------------------------------------------|
E|-----------------------------------------------------------------------|

e|-----------12-15-12-----13-12-------------|
B|--------12----------12--------13-13-10----|
G|---------------------------------------10-|
D|-----14-----------------------------------|
A|------------------------------------------|
E|------------------------------------------|

That is all of the solo i know for now!

http://www.absolutelykosher.com/frogeyes.htm

Tap to rate this tab
 
# A B C D E F G H I J K L M N O P Q R S T U V W X Y Z