Song name
# A B C D E F G H I J K L M N O P Q R S T U V W X Y Z

Misc Unsigned Bands - Black Diamonds - Let It Go tab

Let It Go - best song ever.
The tab is not 100%, but neither are you.

E  :--------------------------------------------------------------------|
B  :--------------------------------------------------------------------|
G  :--------------------------------------------------------------------|
D  :-2-x-2-2----/9---9-7--------------2-x-2-2----/9---9-7---------------|
A  :-2-x-2-2----/7-------9-7b---------2-x-2-2----/7-------9-7b----------|
E  :-0-x-0-0--------------------------0-x-0-0---------------------------|


   :--------------------------------------------------------------------|
   :--------------------------------------------------------------------|
   :--------------------------------------------------------------------|
   :-2-x-2-2----/9---9-7--------------2-x-2-2----7b r5--------5---------|
   :-2-x-2-2----/7-------9-7b---------2-x-2-2----------7--5h7-----------|
   :-0-x-0-0--------------------------0-x-0-0---------------------------|

  
   :--------------------------------------------------------------------|
   :--------------------------------------------------------------------|
   :-2-x-2-2--------------------------2-x-2-2----7b r5--------5---------|
   :-2-x-2-2----/7---7-5--------------2-x-2-2----------7--5h7-----------|
   :-0-x-0-0-------------7-5b---------0-x-0-0---------------------------|
   :--------------------------------------------------------------------|


   :--------------------------------------------------------------------|
   :--------------------------------------------------------------------|
   :--------------------------------------------------------------------|
   :-2-x-2-2----/9---9-7--------------2-x-2-2----/9---9-7---------------|
   :-2-x-2-2----/7-------9-7b---------2-x-2-2----/7-------9-7b----------|
   :-0-x-0-0--------------------------0-x-0-0---------------------------|

                                       
   :-22222222----5-5-5-5-0----0000------------7-7-7-7---7--7--x--7------|
   :-22222222----5-5-5-5-0----0000----9-9\----7-7-7-7---7--7--x--7------|
   :-33333333----6-6-6-6-1----1111----9-9\----8-8-8-8---8--8--x--8------|
   :-44444444----7-7-7-7-2----2222----9-9\----9-9-9-9---9--9--x--9------|
   :-44444444----7-7-7-7-2----2222----7-7\----9-9-9-9---9--9--x--9------|
   :-22222222----5-5-5-5-0----0000------------7-7-7-7---7--7--x--7------|


   :--------------------------------------------------------------------|
   :--------------------------------------------------------------------|
   :--------------------------------------------------------------------|
   :-2-x-2-2----/9---9-7--------------2-x-2-2----/9---9-7---------------|
   :-2-x-2-2----/7-------9-7b---------2-x-2-2----/7-------9-7b----------|
   :-0-x-0-0--------------------------0-x-0-0---------------------------|

   :--------------------------------------------------------------------|
   :--------------------------------------------------------------------|
   :--------------------------------------------------------------------|
   :-2-x-2-2----/9---9-7--------------2-x-2-2----/9---9-7---------------|
   :-2-x-2-2----/7-------9-7b---------2-x-2-2----/7-------9-7b----------|
   :-0-x-0-0--------------------------0-x-0-0---------------------------|

   :--------------------------------------------------------------------|
   :--------------------------------------------------------------------|
   :-2-x-2-2--------------------------2-x-2-2----7b r5--------5---------|
   :-2-x-2-2----/7---7-5--------------2-x-2-2----------7--5h7-----------|
   :-0-x-0-0-------------7-5b---------0-x-0-0---------------------------|
   :--------------------------------------------------------------------|

   :--------------------------------------------------------------------|
   :--------------------------------------------------------------------|
   :--------------------------------------------------------------------|
   :-2-x-2-2----/9---9-7--------------2-x-2-2----/9---9-7---------------|
   :-2-x-2-2----/7-------9-7b---------2-x-2-2----/7-------9-7b----------|
   :-0-x-0-0--------------------------0-x-0-0---------------------------|

Repeat 4X
   :-2-2-2-2----5-5-5-5----------7~--7---7-------------|
   :-2-2-2-2----5-5-5-5---9-9-9--7~--7---7-------------|
   :-3-3-3-3----6-6-6-6---9-9-9--8~--9p8-9p8-----------|
   :-4-4-4-4----7-7-7-7---9-9-9--9~--9---9-------------|
   :-4-4-4-4----7-7-7-7---7-7-7--9~--9---9-------------|
   :-2-2-2-2----5-5-5-5----------7~--7---7-------------|


Then the entire thing repeats.
The solo is something like the pentatonic scale in A.
Tap to rate this tab
 
# A B C D E F G H I J K L M N O P Q R S T U V W X Y Z