Song name
# A B C D E F G H I J K L M N O P Q R S T U V W X Y Z

Misc Unsigned Bands - Strike Under - Elephants Graveyard tab

-------------------------------------------------------------------------------
			     ELEPHANTS GRAVEYARD - Strike Under
-------------------------------------------------------------------------------
Tabbed by:rockthefupa
Email:rockthefupa@yahoo.com

Tuning:standard


intro/verse

guitar 1
e|---------------------------------------------------------------------------|
B|---------------------------------------------------------------------------|
G|---------------------------------------------------------------------------|
D|----6-7-9------------------------------------------------------------------|
A|--7-------5-4-5----2-3-5----5-4--------------------------------------------|
E|-----------------3--------5------------------------------------------------|

guitar 2
e|---------------------------------------------------------------------------|
B|--9-99--7-77---------------------------------------------------------------|
G|--9-99--7-77---4-44--6-66--------------------------------------------------|
D|--9-99--7-77---x-xx--x-xx--------------------------------------------------|
A|--7-77--5-55---5-55--7-77--------------------------------------------------|
E|---------------3-33--5-55--------------------------------------------------|


pre chorus thing
e|---------------------------------------------------------------------------|
B|---------------------------------------------------------------------------|
G|---------------------------------------------------------------------------|
D|---------------------------------------------------------------------------|
A|----5-4--7-5-4-7-5-4-5-4---------------------------------------------------|
E|--5----------------------5-------------------------------------------------|


pre chorus/chorus (listen to song for strumming patterns)
e|---------------------------------------------------------------------------|
B|-----------------7777777777777--999999999999999----------------------------|
G|--44444-33333----7777777777777--999999999999999----------------------------|
D|--xxxxx-xxxxx----7777777777777--999999999999999----------------------------|
A|--55555-44444----5555555555555--777777777777777----------------------------|
E|--33333-22222--------------------------------------------------------------|

e|---------------------------------------------------------------------------|
B|---------------------------------------------------------------------------|
G|-222222222222-4444444444444-666666666666666--------------------------------|
D|-xxxxxxxxxxxx-xxxxxxxxxxxxx-xxxxxxxxxxxxxxx--------------------------------|
A|-333333333333-5555555555555-777777777777777--------------------------------|
E|-111111111111-3333333333333-555555555555555--------------------------------|



| /  slide up
| \  slide down
| h  hammer-on
| p  pull-off
| ~  vibrato
| +  harmonic
| x  Mute note
===============================================================================
Tap to rate this tab
 
# A B C D E F G H I J K L M N O P Q R S T U V W X Y Z