Song name
# A B C D E F G H I J K L M N O P Q R S T U V W X Y Z

Misc Unsigned Bands - The Lions - Metal Heavy Lady tab

Metal Heavy Lady: The Lions

Drop D tuning: DADGBe

This is my first ever tab and I hope you like it. It's not 100%, but it should give a 
outline.(I didn't know this band was unsigned).
Intro:
|-----------------------------------------------------------------------------|
|-----------------------------------------------------------------------------|
|-----------------------------------------------------------------------------|
|-----------------------------------------------------------------------------|
|-----------------------------------------------------------------------------|
|--4---2-5-2-2-4-2-2-3-2-2-1-4-2-2-5-2-2-4-2-2-4-2-2-3-2-2--------------------|
repeat this X? without the first 4.

Chorus:
|-----------------------------------------------------------------------------|
|---------------------------------------------------4^------------------------|
|----------------------------------------------3-5----------------------------|
|5-5-5-5-5-5-5-5-5-3-5-3-5-5-3-5-5-5-5-5-5-3-5--------------------------------|
|5-5-5-5-5-5-5-5-5-3-5-3-5-5-3-5-5-5-5-5-5------------------------------------|
|5-5-5-5-5-5-5-5-5-3-5-3-5-5-3-5-5-5-5-5-5------------------------------------|

I'm not sure how many times you repeat any of it.


Bridge:
|-----------------------------------------------------------------------------|
|-----------------------------------------------------------------------------|
|-----------------------------------------------------------------------------|
|-----------------------------------------------------------------------------|
|-----------------------------------------------------------------------------|
|--2-5-2-2-4-2-2-4-2-4-5-2-5-2-2-4-2-2-4-2-4-2-4-5----------------------------|
Again, I don't know how many repeats.

You do the solo(which I haven't bothered with),the chorus, and then after the bend in 
chorus, this is the last note. Figure out the solo, it's easy, I just didn't feel like 
it out.
|---|
|---|
|---|
|-5-|
|-5-|
|-5-|

Don't forget to release the bend(^) in the chorus. Listen to the song on Guitar Hero 3, 
where I heard it, and there was no tab. Even though I don't know this band, just this song.

Again, first tab, enjoy and rate, I would also like you to tell me how accurate it is.
Tap to rate this tab
# A B C D E F G H I J K L M N O P Q R S T U V W X Y Z