Song name
# A B C D E F G H I J K L M N O P Q R S T U V W X Y Z

Misc Unsigned Bands - Academic Rebellion - Black tab

-----------------------------------------------------------------------------
			     Black - Academic Rebillion
-----------------------------------------------------------------------------
Tabbed by:Clancy 13


Tuning:Standard

sounds best with heavy distort, and a lot of treble

e|--------7------------7------------7------------7------------7-------------|
B|--5-7-8--8-7-5-5-7-8--8-7-5-5-7-8--8-7-5-5-7-8--8-7-5-5-7-8--8-7-5--------|
G|--------------------------------------------------------------------------|
D|--------------------------------------------------------------------------|
A|--------------------------------------------------------------------------|
E|--------------------------------------------------------------------------|

e|--------------------------------------------------------------|
B|--------------------------------------------------------------|
G|--------------------------------------------------------------|
D|--------------------------------------------------------------|
A|---------2----------2----------2----------2----------2--------|
E|---0-2-3--3-2-0-2-3--3-2-0-2-3--3-2-0-2-3--3-2-0-2-3--3-2-0---|

e|------------------------------------------------------------------|
B|------------------------------------------------------------------|
G|---------2-----------2-----------2-----------2-----------2--------|
D|---0-2-3-2-3-2-0-2-3-2-3-2-0-2-3-2-3-2-0-2-3-2-3-2-0-2-3-2-3-2-0--|
A|---0-2-3-2-3-2-0-2-3-2-3-2-0-2-3-2-3-2-0-2-3-2-3-2-0-2-3-2-3-2-0--|
E|---0-2-3---3-2-0-2-3---3-2-0-2-3---3-2-0-2-3---3-2-0-2-3---3-2-0--|

e|--------------------------------------------------------------|
B|--------------------------------------------------------------|
G|--------------------------------------------------------------|
D|--------------------------------------------------------------|
A|---------2----------2----------2----------2----------2--------|
E|---0-2-3--3-2-0-2-3--3-2-0-2-3--3-2-0-2-3--3-2-0-2-3--3-2-0---|

e|--------------------------------------------------------------|
B|--------------------------------------------------------------|
G|--------------------------------------------------------------|
D|--------------------------------------------------------------|
A|---------2----------2----------2----------2----------2--------|
E|---0-2-3--3-2-0-2-3--3-2-0-2-3--3-2-0-2-3--3-2-0-2-3--3-2-0---|


e|------------------------------------------------------------------|
B|------------------------------------------------------------------|
G|---------2-----------2-----------2-----------2-----------2--------|
D|---0-2-3-2-3-2-0-2-3-2-3-2-0-2-3-2-3-2-0-2-3-2-3-2-0-2-3-2-3-2-0--|
A|---0-2-3-2-3-2-0-2-3-2-3-2-0-2-3-2-3-2-0-2-3-2-3-2-0-2-3-2-3-2-0--|
E|---0-2-3---3-2-0-2-3---3-2-0-2-3---3-2-0-2-3---3-2-0-2-3---3-2-0--|

e|--------7------------7------------7------------7------------7-------------|
B|--5-7-8--8-7-5-5-7-8--8-7-5-5-7-8--8-7-5-5-7-8--8-7-5-5-7-8--8-7-5--------|
G|--------------------------------------------------------------------------|
D|--------------------------------------------------------------------------|
A|--------------------------------------------------------------------------|
E|--------------------------------------------------------------------------|
palm mute entire riff here ^


Tap to rate this tab
# A B C D E F G H I J K L M N O P Q R S T U V W X Y Z