Guitaretab - guitar tabs
Song name
# A B C D E F G H I J K L M N O P Q R S T U V W X Y Z

Misc Unsigned Bands - Fixed Upon Her Soul - The Art Of Keeping Cool tab

The Art of Keeping Cool         ^=Pinch
Fixed Upon Her Soul             ~=Let Note Ring
Pokemon Demo '08                += 1 Gallop
copyright04/20/08           PM/.=Palm Mute
Guitar 1                        h=Hammer-on
Intro:
e|----------------------------------------|
B|----------------------------------------|
G|----------------------------------------|
D|----------------------------------------|
A|----------------------------0-0-0-0-0-0-|
D|-0-3-0-5-0-3-0-5-0-3-0-5-0--0-0-0-0-0-0-|x2
PM                            . . . . . .

e|----------------------------------------|
B|----------------------------------------|
G|----------------------------------------|
D|---3---5---3---5---3---5----------------|
A|-0-3-0-5-0-3-0-5-0-3-0-5-0--0-0-0-0-0-0-|
D|-0-3-0-5-0-3-0-5-0-3-0-5-0--0-0-0-0-0-0-|
PM .   .   .   .   .   .   .  . . . . . .

e|---------------------------------------|
B|---------------------------------------|
G|---------------------------------------|
D|---3---5---3---5---3---5---------------|
A|-0-3-0-5-0-3-0-5-0-3-0-5-0-5-3-0-------|
D|-0-3-0-5-0-3-0-5-0-3-0-5-0-------6-5-3-|
PM .   .   .   .   .   .   .

(Both) Guitar(s) IMMEDIATELY AFTER
Verse 1:
e|-----------------------------|
B|-----------------------------|
G|-----------------------------|
D|-3-----5-----6-----5---3---5-|
A|-3-0-0-5-0-0-6-0-0-5-0-3-0-5-|
D|-3-0-0-5-0-0-6-0-0-5-0-3-0-5-|x5
     . .   . .   . .   .   .

e|------------------------------|
B|------------------------------|
G|------------------------------|
D|-3-----5-----6-----5---3---5~-|
A|-3-0-0-5-0-0-6-0-0-5-0-3-0-5~-|
D|-3-0-0-5-0-0-6-0-0-5-0-3-0-5~-|
     . .   . .   . .   .   .

VERY FAST!!!
Guitar 1
e|---------------------|
B|---------------------|
G|---------------------|
D|---------------------|
A|-0+0+0+0+--0+0+-0+0+-|
D|-0+0+0+0+--0+0+-0+0+-|x2
PM . . . .   . .  . .

Guitar 2
D|-0~-|
A|-0~-|
D|-0~-|

Guitar 1 (Possibly Both)
Verse 2: _____________________________
e|-------------------------------|   |
B|-------------------------------|   |
G|-------------------------------|   |
D|-------------------------------|   |
A|-0-0-5-0-3-0---0---0---0-3-0-5-|   |
D|-0-0---0---0-5-0-3-0-5-0---0-5-|   |
PM . .   .   .   .   .   .   .       |
                                     |W
e|----------------------------|      |H
B|----------------------------|      |O
G|----------------------------|      |L
D|----------------------------|      |E
A|-0-0-5-0-3-0---0---0---0-3^-|      |
D|-0-0---0---0-5-0-3-0-5-0----|      |T
PM . .   .   .   .   .   .           |H
                                     |I
e|-------------------------------|   |N
B|-------------------------------|   |G
G|-------------------------------|   |x2
D|-------------------------------|   |
A|-0-0-5-0-3-0---0---0---0-3-0-5-|   |
D|-0-0---0---0-5-0-3-0-5-0---0-5-|   |
PM . .   .   .   .   .   .   .       |
                                     |
e|---------------------------------| |
B|---------------------------------| |
G|---------------------------------| |
D|-------------------------3-3-3-3-| |
A|-0-0-5-0-3-0---0---0---0---------| |
D|-0-0---0---0-5-0-3-0-5-0---------| |
PM . .   .   .   .   .   .           |
_____________________________________|
Note: On the first time playing through, you only play D-3 once


Guitar 1
e|------------------------------------------|
B|------------------------------------------|
G|------------------------------------------|
D|-0----------5---3--0----------3--5h-3--5h-|
A|-0--0-0-0-0---0----0--0-0-0-0-3--5h-3--5h-|
D|-0--0-0-0-0---0----0--0-0-0-0-3--5h-3--5h-|
PM    . . . .   .       . . . .

e|------------------------------------------|
B|------------------------------------------|
G|------------------------------------------|
D|-0----------5---3--0----------6-5-0-3-5-3-|
A|-0--0-0-0-0---0----0--0-0-0-0-6-5-0-3-5-3-|
D|-0--0-0-0-0---0----0--0-0-0-0-6-5-0-3-5-3-|Whole Thingx4
PM    . . . .   .       . . . .

Both Guitars
e|------------------------------------------|
B|------------------------------------------|
G|------------------------------------------|
D|-------------------------------------6--5-|
A|-0-0-0-5-3-0-0-0-0-------0-0-0-5-3-0-6--5-|
D|-0-0-0-------0-0-0-6-5-3-0-0-0-------6--5-|x2
PM . . .       . . .       . . .

e|-------------------------|
B|-------------------------|
G|-------------------------|
D|-------------------------|
A|-0-0-0-5-3-0-0-0-0-------|
D|-0-0-0-------0-0-0-6-5-3-|x3
PM . . .       . . .

e|---------------------|
B|---------------------|
G|---------------------|
D|-------------6--5--3-|
A|-0-0-0-5-3-0-6--5--3-|
D|-0-0-0-------6--5--3-|
PM . . .

Guitar 1
e|----------------------------------|
B|----------------------------------|
G|----------------------------------|
D|----------------------------------|
A|-0+0+----0+0+----0+0+----0+0+0+0+-|
D|-0+0+----0+0+----0+0+----0+0+0+0+-|x4?
PM . .     . .     . .     . . . .

Guitar 1
D|-0~-|
A|-0~-|
D|-0~-|

Guitar 2
e|-----------------------------|
B|-----------------------------|
G|-----------------------------|
D|-----------------------------|
A|-----------------------------|
D|-3-0-0-5-0-0-6-0-0-5-0-3-0-5-|x2

(Both) Guitar(s)
e|-----------------------------|
B|-----------------------------|
G|-----------------------------|
D|-3-----5-----6-----5---3---5-|
A|-3-0-0-5-0-0-6-0-0-5-0-3-0-5-|
D|-3-0-0-5-0-0-6-0-0-5-0-3-0-5-|x5
     . .   . .   . .   .   .

e|------------------------------|
B|------------------------------|
G|------------------------------|
D|-3-----5-----6-----5---3---5~-|
A|-3-0-0-5-0-0-6-0-0-5-0-3-0-5~-|
D|-3-0-0-5-0-0-6-0-0-5-0-3-0-5~-|
     . .   . .   . .   .   .

VERY FAST!!!
Guitar 1
e|---------------------|
B|---------------------|
G|---------------------|
D|---------------------|
A|-0+0+0+0+--0+0+-0+0+-|
D|-0+0+0+0+--0+0+-0+0+-|x2
PM . . . .   . .  . .

Guitar 2
D|-0~-|
A|-0~-|
D|-0~-|
[ Tab from: http://www.guitaretab.com/m/misc-unsigned-bands/107302.html ]
Guitar 1 (Possibly Both)
Verse 2: _____________________________
e|-------------------------------|   |
B|-------------------------------|   |
G|-------------------------------|   |
D|-------------------------------|   |
A|-0-0-5-0-3-0---0---0---0-3-0-5-|   |
D|-0-0---0---0-5-0-3-0-5-0---0-5-|   |
PM . .   .   .   .   .   .   .       |
                                     |W
e|----------------------------|      |H
B|----------------------------|      |O
G|----------------------------|      |L
D|----------------------------|      |E
A|-0-0-5-0-3-0---0---0---0-3^-|      |
D|-0-0---0---0-5-0-3-0-5-0----|      |T
PM . .   .   .   .   .   .           |H
                                     |I
e|-------------------------------|   |N
B|-------------------------------|   |G
G|-------------------------------|   |x2
D|-------------------------------|   |
A|-0-0-5-0-3-0---0---0---0-3-0-5-|   |
D|-0-0---0---0-5-0-3-0-5-0---0-5-|   |
PM . .   .   .   .   .   .   .       |
                                     |
e|---------------------------------| |
B|---------------------------------| |
G|---------------------------------| |
D|-------------------------3-3-3-3-| |
A|-0-0-5-0-3-0---0---0---0---------| |
D|-0-0---0---0-5-0-3-0-5-0---------| |
PM . .   .   .   .   .   .           |
_____________________________________|
Note: On the first time playing through, you only play D-3 once

Guitar 1
e|------------------------------------------|
B|------------------------------------------|
G|------------------------------------------|
D|-0-----------------0----------3--5h-3--5h-|
A|-0--0-0-0-0-5-0-3--0--0-0-0-0-3--5h-3--5h-|
D|-0--0-0-0-0---0----0--0-0-0-0-3--5h-3--5h-|
PM    . . . .   .       . . . .

e|------------------------------------------|
B|------------------------------------------|
G|------------------------------------------|
D|-0----------5---3--0----------6-5-0-3-5-3-|
A|-0--0-0-0-0---0----0--0-0-0-0-6-5-0-3-5-3-|
D|-0--0-0-0-0---0----0--0-0-0-0-6-5-0-3-5-3-|Whole Thingx4
PM    . . . .   .       . . . .

Both Guitars
e|------------------------------------------|
B|------------------------------------------|
G|------------------------------------------|
D|-------------------------------------6--5-|
A|-0-0-0-5-3-0-0-0-0-------0-0-0-5-3-0-6--5-|
D|-0-0-0-------0-0-0-6-5-3-0-0-0-------6--5-|x2
PM . . .       . . .       . . .

e|-------------------------|
B|-------------------------|
G|-------------------------|
D|-------------------------|
A|-0-0-0-5-3-0-0-0-0-------|
D|-0-0-0-------0-0-0-6-5-3-|x3
PM . . .       . . .

e|---------------------|
B|---------------------|
G|---------------------|
D|-------------6--5--3-|
A|-0-0-0-5-3-0-6--5--3-|
D|-0-0-0-------6--5--3-|
PM . . .

e|------------------------|
B|------------------------|
G|------------------------|
D|-0----------------------|
A|-0--0-0-0-0-5-3-0-------|
D|-0--0-0-0-0-------6-5-3-|x3
PM    . . . .

e|---------------------|
B|---------------------|
G|---------------------|
D|-0----------------3^-|
A|-0--0-0-0-0-5-3-0----|
D|-0--0-0-0-0----------|
PM    . . . .

e|------------------------|
B|------------------------|
G|------------------------|
D|-0----------------------|
A|-0--0-0-0-0-5-3-0-------|
D|-0--0-0-0-0-------6-5-3-|x3
PM    . . . .

e|---------------------------|
B|---------------------------|
G|---------------------------|
D|-0----------6-5-0-3-5-3-0~-|
A|-0--0-0-0-0-6-5-0-3-5-3-0~-|
D|-0--0-0-0-0-6-5-0-3-5-3-0~-|
      . . . .

Guitar 1
e|----------------------------|
B|----------------------------|
G|----------------------------|
D|----------------------------|
A|-0+0+--0+0+--0+0+--0+0+0+0+-|
D|-0+0+--0+0+--0+0+--0+0+0+0+-|x4?
PM . .   . .   . .   . . . .

Guitar 2
D|-0~-|
A|-0~-|
D|-0~-|

Guitar 1
e|----------------------------------------|
B|----------------------------------------|
G|----------------------------------------|
D|----------------------------------------|
A|----------------------------0-0-0-0-0-0-|
D|-0-3-0-5-0-3-0-5-0-3-0-5-0--0-0-0-0-0-0-|x2
PM                            . . . . . .

Both Guitars
e|----------------------------------------|
B|----------------------------------------|
G|----------------------------------------|
D|---3---5---3---5---3---5----------------|
A|-0-3-0-5-0-3-0-5-0-3-0-5-0--0-0-0-0-0-0-|
D|-0-3-0-5-0-3-0-5-0-3-0-5-0--0-0-0-0-0-0-|
PM .   .   .   .   .   .   .  . . . . . .

e|---------------------------------------|
B|---------------------------------------|
G|---------------------------------------|
D|---3---5---3---5---3---5---------------|
A|-0-3-0-5-0-3-0-5-0-3-0-5-0-5-3-0-------|
D|-0-3-0-5-0-3-0-5-0-3-0-5-0-------6-5-3-|
PM .   .   .   .   .   .   .

(Both) Guitar(s)
e|-----------------------------|
B|-----------------------------|
G|-----------------------------|
D|-3-----5-----6-----5---3---5-|
A|-3-0-0-5-0-0-6-0-0-5-0-3-0-5-|
D|-3-0-0-5-0-0-6-0-0-5-0-3-0-5-|x5
     . .   . .   . .   .   .

e|------------------------------|
B|------------------------------|
G|------------------------------|
D|-3-----5-----6-----5---3---5~-|
A|-3-0-0-5-0-0-6-0-0-5-0-3-0-5~-|
D|-3-0-0-5-0-0-6-0-0-5-0-3-0-5~-|Guitar 1 holds the "5" out
     . .   . .   . .   .   .

Guitar 2
D|--------------------0-|
A|-5--3-0--3-0--------0-|
D|--------------5-7-5-0-|

Both Guitars
e|----------------------------------------|
B|----------------------------------------|
G|----------------------------------------|
D|--------------------------------------0-|
A|-0-0--0-0--0-0-0-0-5--3-0--3-0--5-7-5-0-|
D|-0-0--0-0--0-0-0-0--------------5-7-5-0-|x4
PM . .  . .  . . . .

Guitar 1
e|----------------------------------------|
B|----------------------------------------|
G|----------------------------------------|
D|----------5---3--0----------3--5h-3--5h-|
A|--0-0-0-0---0----0--0-0-0-0-3--5h-3--5h-|
D|--0-0-0-0---0----0--0-0-0-0-3--5h-3--5h-|
PM  . . . .   .       . . . .

e|---------------------------------------------------------|
B|---------------------------------------------------------|
G|---------------------------------------------------------|
D|-0----------5---3--0----------6-5-0-3-5-3-0~-------------|
A|-0--0-0-0-0---0----0--0-0-0-0-6-5-0-3-5-3-0~-------------|
D|-0--0-0-0-0---0----0--0-0-0-0-6-5-0-3-5-3-0~|Whole Thing-|x4
PM    . . . .   .       . . . .
Related for Fixed Upon Her Soul - The Art Of Keeping Cool tab