Song name
# A B C D E F G H I J K L M N O P Q R S T U V W X Y Z

Misc Unsigned Bands - The Critical Masses - No School tab

here as i promised the full song of No School cept for The Kid(Lead Guitarist)'s solo


Intro
e----------------|
B----------------|
G----------------|
D--------2-------|(x2)
A-----2-4-4-2----|
E--0-4-------4-0-|

e----------------|
B----------------|
G--------2-------|(x2)
D-----2-4-4-2----|
A--0-4-------4-0-|
E----------------|

e----------------|
B----------------|
G----------------|
D--------2-------|(x2)
A-----2-4-4-2----|
E--0-4-------4-0-|


Verse

e--------------------|
B--------------------|
G--------------------|(x2)
D----5-------5-------|
A--5-3-5-5-5-3-5-5-5-|
E--3---3-3-3---3-3-3-|


Chorus
same as intro

Hulk's Solo

e--------------------------|
B--------------------------|
G--------3h5-5p3------(x15-|
D-----3h5-------5p3--------|
A--3h6-------------6p3-----|
E--------------------------|
Tap to rate this tab
# A B C D E F G H I J K L M N O P Q R S T U V W X Y Z