Song name
# A B C D E F G H I J K L M N O P Q R S T U V W X Y Z

Misc Unsigned Bands - Academic Rebellion - Maymuse tab

-----------------------------------------------------------------------------
			    Maymuse - Academic Rebellion
-----------------------------------------------------------------------------
Tabbed by:Clancy 13


Tuning:tune the 5th string down to G


e|--------------------------------------------------------------------------|
B|--------------------------------------------------------------------------|
G|--------------------------------------------------------------------------|
D|--------------------------------------------------------------------------|
G|-0-0-3-0-5-0-3-0-0-0-3-0-5-0-3-0-0-0-3-0-5-0-3-0-0-0-3-0-5-0-3-0----------|
E|--------------------------------------------------------------------------|

e|--------------------------------------------------------------------------|
B|--------------------------------------------------------------------------|
G|--------------------------------------------------------------------------|
D|--------------------------------------------------------------------------|
G|0-0-3-0-5-0-3-0-0-3-0-66--------------------------------------------------|
E|--------------------------------------------------------------------------|

e|--------------------------------------------------------------------------|
B|--------------------------------------------------------------------------|
G|--------------------------------------------------------------------------|
D|--------------------------------------------------------------------------|
G|-0-0-3-0-5-0-3-0-0-0-3-0-5-0-3-0-0-0-3-0-5-0-3-0-0-0-3-0-5-0-3-0----------|
E|--------------------------------------------------------------------------|

e|--------------------------------------------------------------------------|
B|--------------------------------------------------------------------------|
G|--------------------------------------------------------------------------|
D|--------------------------------------------------------------------------|
G|0-0-3-0-5-0-3-0-0-3-0-66--------------------------------------------------|
E|--------------------------------------------------------------------------|

e|--------------------------------------------------------------------------|
B|--------------------------------------------------------------------------|
G|--------------------------------------------------------------------------|
D|--------------------------------------------------------------------------|
G|-0-0-3-0-5-0-3-0-0-0-3-0-5-0-3-0-0-0-3-0-5-0-3-0-0-0-3-0-5-0-3-0----------|
E|--------------------------------------------------------------------------|

e|--------------------------------------------------------------------------|
B|--------------------------------------------------------------------------|
G|--------------------------------------------------------------------------|
D|--------------------------------------------------------------------------|
G|0-0-3-0-5-0-3-0-0-3-0-66--------------------------------------------------|
E|--------------------------------------------------------------------------|

yeah thats bout it, check out my profile for the rythym
Tap to rate this tab
 
# A B C D E F G H I J K L M N O P Q R S T U V W X Y Z