Song name
# A B C D E F G H I J K L M N O P Q R S T U V W X Y Z

Misc Unsigned Bands - Castra - Carlton Banks tab

e|----------------------------------------------------------------------------|
B|----------------------------------------------------------------------------|
G|----------------------------------------------------------------------------|
D|-------------------------------------------2-----2------2----2-----2p0------|
A|-------5-------5--------5-----5----5p0--------------------------------------|
D|---00------00------00------00--00------00 -----00----00----00----00---------|


e|----------------------------------------------------------------------------|
B|----------------------------------------------------------------------------|
G|----------------------------------------------------------------------------|
D|----------------------------------------------------------------------------|
A|----1------1----1----1---------1/3------3-----3-----3-----3-----3/5---------|
D|-00---00-----00---00---00--00-------00----00----00----00----00--------------|


e|----------------------------------------------------------------------------|
B|----------------------------------------------------------------------------|
G|----------------------------------------------------------------------------|
D|-----------------------------------2-----2-----3-------------3--------------|
A|----7h8--5h7--3h5---2h3p2-------33----33---33-----00--3--00------00--3------|
D|--00---00---00---00---------------------------------------------------------|

| /  slide up
| \  slide down
| h  hammer-on
| p  pull-off
| ~  vibrato
| +  harmonic
| x  Mute note
Tap to rate this tab
# A B C D E F G H I J K L M N O P Q R S T U V W X Y Z