Song name
# A B C D E F G H I J K L M N O P Q R S T U V W X Y Z

Misc Unsigned Bands - Extended Volume - Return And Refigure tab

a song me and my friends made up,
hope you have as much fun playing it as we did making it

Intro

E||------12--|
B||----------|
G||----------|
D||----------|
A||----------|
E||--3>8-----|

E||--7------|
B||----7----|
G||------7--|X8
D||---------|
A||---------|
E||---------|

E||--12--------|
B||-----12-----|
G||--------12--|X3
D||------------|
A||------------|
E||------------|

E||--10--------|
B||-----10-----|
G||--------10--|X3
D||------------|
A||------------|
E||------------|

E||--7------|
B||----7----|
G||------7--|X8
D||---------|
A||---------|
E||---------|

E||--12--------|
B||-----12-----|
G||--------12--|X3
D||------------|
A||------------|
E||------------|

E||--10--------|
B||-----10-----|
G||--------10--|X3
D||------------|
A||------------|
E||------------|

E||--11--------|
B||-----11-----|
G||--------11--|X3
D||------------|
A||------------|
E||------------|

E||--9---------|
B||----9-------|
G||------9-----|X3
D||------------|
A||------------|
E||------------|

E||--7-----7--------|
B||----7-----7------|
G||------7-----7----|
D||---------------0-|
A||-----------------|
E||-----------------|

To get the correct effect drag your finger at a medium to slow speed over the strings. 
should have a half oriental sound.


Verse

Tremolo Pick this

E||--12-11-11-10-9-11-10-9-11--|
B||----------------------------|
G||----------------------------|
D||----------------------------|
A||----------------------------|
E||----------------------------|

repeat this throughout the verse, and emphasize the last note, pausing after it.

Chorus

Let Each note drown on

E||--12-10-11-9-10-7-7>12--|
B||------------------------|
G||------------------------|
D||------------------------|
A||------------------------|
E||------------------------|

I havent included the lyrics as i want you to make them up,
use it as you wish and play around with it if you want
thanks for visiting this.
Tap to rate this tab
# A B C D E F G H I J K L M N O P Q R S T U V W X Y Z