Song name
# A B C D E F G H I J K L M N O P Q R S T U V W X Y Z

Misc Unsigned Bands - Alex Cline - Distress Mistress tab

This is from a song I wrote a while back.
This is just the Intro, I'm working on the rest.

Symbols
_________________________
palm mute     pm.
pick slide    x/
hammer on     h
pull off      p
bend          b
dead note     x
vibrato       ~

Guitar 1
|-------------------------------------------------|
|-------------------------------------------------|
|-------------------------------------------------|
|--2-2-2--3-2--2-2-2--3-2--3-3-3--5-3--3-3-3--5-3-| (x4)
|--2-2-2--3-2--2-2-2--3-2--3-3-3--5-3--3-3-3--5-3-|
|--2-2-2--3-2--2-2-2--3-2--3-3-3--5-3--3-3-3--5-3-|
pm . . .       . . .       . . .       . . .
Guitar 2
|-------------------------------------------------|
|-------------------------------------------------|
|-------------------------------------------------|
|--3-3-3--4-3--3-3-3--4-3--4-4-4--5-4--4-4-4--5-4-| (x2)
|--x-x-x--x-x--x-x-x--x-x--x-x-x--x-x--x-x-x--x-x-|
|--1-1-1--2-1--1-1-1--2-1--2-2-2--3-2--2-2-2--3-2-|

Guitar 2
|-------------------------------------------------|
|-------------------------------------------------|
|--0-2-3--2-0--0-2-3--2-0--0-2-3--2-5--0-2-3--2-5-|
|-------------------------------------------------| (x2)
|-------------------------------------------------|
|-------------------------------------------------|

Both Guitars
|---------------------------------|
|---------------------------------|
|--0-2-3--2--0-2-3--2--0-2-3--2-5-|
|----------3---------5------------| (x4)
|---------------------------------|
|---------------------------------|

|---------------------------------------------------------|
|---------------------------------------------------------|
|---------------------------------------------------------|
|-----------7h9-----------7h9-----------5h7~---------5h7~-|
|--5555555-7---9-5555555-7---9-3333333-5----3333333-5-----|
|---------------------------------------------------------|
pm .......       .......       .......      .......

|---------------------------------------------|
|---------------------------------------------|
|------------------------------------------8~-|
|---------9h11-----------9h10-7~-------9h10---|
|--7777777----12~-7777777-------7777777-------|
|---------------------------------------------|
pm .......        .......       .......

Both Guitars (x2), after that, Guitar 1 plays (x2) again
|-------------------------------|
|-------------------------------|
|------8----8----7----7---6---6-|
|--9-10-9-10-9-10-9-10-8-9-8-9--|
|-------------------------------|
|-------------------------------|

While Guitar 2 Plays this fast
|------------------------------------------------|
|------------------------------------------------|
|--7h10(x4)-6h9(x4)-9h12(x4)-7h10(x2)-6h9(x2)----|
|------------------------------------------------|
|------------------------------------------------|
|------------------------------------------------|
Tap to rate this tab
# A B C D E F G H I J K L M N O P Q R S T U V W X Y Z