Song name
# A B C D E F G H I J K L M N O P Q R S T U V W X Y Z

Misc Unsigned Bands - Gone Til November - Goodbye Lulaby tab

Intro and Verse 1
E----------------------------------------------------------|
B----------------------------------------------------------|
G---9---5---12---/11---x--x--------------------------------| x4
D---9---5---12---/11---x--x--------------------------------|
A---7---3---10---/9----x--x--------------------------------|
E----------------------------------------------------------|

Chorus
E----------------------------------------------------------|
B----------------------------------------------------------|
G-----------11---------------------------------------------| x3
D---9---5---11---------------------------------------------|
A---9---5---9----------------------------------------------|
E---7---3--------------------------------------------------|

Verse 2
E----------------------------------------------------------|
B----------------------------------------------------------|
G---9---5---12---/11---x--x--------------------------------| x4
D---9---5---12---/11---x--x--------------------------------|
A---7---3---10---/9----x--x--------------------------------|
E----------------------------------------------------------|

Chorus
E----------------------------------------------------------|
B----------------------------------------------------------|
G-----------11---------------------------------------------| x3
D---9---5---11---------------------------------------------|
A---9---5---9----------------------------------------------|
E---7---3--------------------------------------------------|

Bridge
E----------------------------------------------------------|
B----------------------------------------------------------|
G-----------11---------------------------------------------| x3
D---9---5---11---------------------------------------------|
A---9---5---9----------------------------------------------|
E---7---3--------------------------------------------------|

Verse 3
E----------------------------------------------------------|
B----------------------------------------------------------|
G---9---5---12---/11---x--x--------------------------------| x4
D---9---5---12---/11---x--x--------------------------------|
A---7---3---10---/9----x--x--------------------------------|
E----------------------------------------------------------|

Chorus
E----------------------------------------------------------|
B----------------------------------------------------------|
G-----------11---------------------------------------------| x3
D---9---5---11---------------------------------------------|
A---9---5---9----------------------------------------------|
E---7---3--------------------------------------------------|
Tap to rate this tab
 
# A B C D E F G H I J K L M N O P Q R S T U V W X Y Z