Song name
# A B C D E F G H I J K L M N O P Q R S T U V W X Y Z

Misc Unsigned Bands - Lojic - Its All The Same tab

Tabbed by:ESchwo
Email:eman67884@aol.com

Tuning:EADGBE
                    (Bar 6th)   (Bar 5th)  (Bar 5th)
e|--5--5--5--5--5----6-6-6-6----5-5-5-5-----5-5-5-5------------------------|
B|--6--6--6--6--6----6-6-6-6----6-6-6-6-----5-5-5-5------------------------|
G|--7--7--7--7--7----7-7-7-7----7-7-7-7-----6-6-6-6------------------------|
D|-------------------8-8-8-8----------------7-7-7-7------------------------|
A|-------------------------------------------------------------------------|
E|-------------------------------------------------------------------------|

e|--------------------------------------------------------------|
B|--------------------------------------------------------------|
G|--7-7----3-3--------------------------------------------------|
D|--7-7----3-3---3-3---7-7--------------------------------------|
A|--5-5----1-1---3-3---7-7--------------------------------------|
E|---------------1-1---5-5--------------------------------------|
Tap to rate this tab
 
# A B C D E F G H I J K L M N O P Q R S T U V W X Y Z