Song name
# A B C D E F G H I J K L M N O P Q R S T U V W X Y Z

Misc Unsigned Bands - Sba - Snake tab

Intro

e------------------------------------------------------------------|
B----8-88--88--88---8-88--88--88---8-88--88--88---8-88--88--88-----|
G----8-88--88--88---8-88--88--88---8-88--88--88---8-88--88--88-----|    X4
D------------------------------------------------------------------|
A------------------------------------------------------------------|
E--88-8--88--88--877-7--77--77--766-6--66--66--655-5--55--55--0----|

Verse

e-----------------------------------------------------------------------|
B----8-8---8-8---8----7-7---7-7---7----6-6---6-6---6----5-5---5-5---5---|
G---8---8-8---8-8-8--7---7-7---7-7-7--6---6-6---6-6-6--5---5-5---5-5-5--| X4
D-----------------------------------------------------------------------|
A-----------------------------------------------------------------------|
E--8--8--8--8--8---87--7--7--7--7---76--6--6--6--6---65--5--5--5--5-----|

Chorus

(11's NOT 1's)
e------------------------------------------------------------|
B--8888881111--8888881111-8888888666-888888------------------|
G--8888888888--8888888888-8888888888-888888-8888888----------| X4
D-------------------------------------------8888888----------|
A-------------------------6666666666-888888-9999999----------|
E--8888888888-77777777777------------------------------------|
Tap to rate this tab
 
# A B C D E F G H I J K L M N O P Q R S T U V W X Y Z