Song name
# A B C D E F G H I J K L M N O P Q R S T U V W X Y Z

Misc Unsigned Bands - Trinity - Story Of Your Life tab

All strings down HALF step

Intro: X8
e|--------------------------------------------------------------------------|
B|--------------------------------------------------------------------------|
G|------------10/11/10--13--------------------------------------------------|
D|--11/12/11----------------------------------------------------------------|
A|--------------------------------------------------------------------------|
E|--------------------------------------------------------------------------|

Verse1: Guitar 1 X8
e|--------------------------------------------------------------------------|
B|--------------------------------------------------------------------------|
G|--------------------------------------------------------------------------|
D|---3-3---3-3---3-3---3-3---3-3--------------------------------------------|
A|---3-3---3-3---3-3---3-3---3-3--------------------------------------------|
E|---3-3---3-3---3-3---3-3---3-3--------------------------------------------|

Guitar 2 on 4th Go round X4
e|--------------------------------------------------------------------------|
B|----------10-13-----------------------------------------------------------|
G|----10-12-----------------------------------------------------------------|
D|--------------------------------------------------------------------------|
A|--------------------------------------------------------------------------|
E|--------------------------------------------------------------------------|
  Guitar 1 & 2 X8
  pm pm pm pm
e|--------------------------------------------------------------------------|
B|--------------------------------------------------------------------------|
G|--------------------------------------------------------------------------|
D|--------------------------------------------------------------------------|
A|-------------5-------------------5----------------------------------------|
E|-0-0-0-0-0--5-5~~~---0-0-0-0-0--5-5~~~------------------------------------|

Chorus: X4
e|--------------------------------------------------------------------------|
B|--------------------------------------------------------------------------|
G|--------------------------------------------------------------------------|
D|---777--333---777--333----------------------------------------------------|
A|---777--333---777--333----------------------------------------------------|
E|---555--333---555--333----------------------------------------------------|

 Bridge: Tapping 
e|------10131013101310131013101310131013101310131010------------------------|
B|--------------------------------------------------------------------------|
G|--------------------------------------------------------------------------|
D|--------------------------------------------------------------------------|
A|--------------------------------------------------------------------------|
E|--------------------------------------------------------------------------|

Verse 2: Guitar 1 X8
e|--------------------------------------------------------------------------|
B|--------------------------------------------------------------------------|
G|--------------------------------------------------------------------------|
D|---3-3---3-3---3-3---3-3---3-3--------------------------------------------|
A|---3-3---3-3---3-3---3-3---3-3--------------------------------------------|
E|---3-3---3-3---3-3---3-3---3-3--------------------------------------------|

Guitar 2 on 4th Go round X4
e|--------------------------------------------------------------------------|
B|----------10-13-----------------------------------------------------------|
G|----10-12-----------------------------------------------------------------|
D|--------------------------------------------------------------------------|
A|--------------------------------------------------------------------------|
E|--------------------------------------------------------------------------|
  Guitar 1 & 2 X8
  pm pm pm pm
e|--------------------------------------------------------------------------|
B|--------------------------------------------------------------------------|
G|--------------------------------------------------------------------------|
D|--------------------------------------------------------------------------|
A|-------------5-------------------5----------------------------------------|
E|-0-0-0-0-0--5-5~~~---0-0-0-0-0--5-5~~~------------------------------------|

  Bridge: Tapping 
e|------10131013101310131013101310131013101310131010------------------------|
B|--------------------------------------------------------------------------|
G|--------------------------------------------------------------------------|
D|--------------------------------------------------------------------------|
A|--------------------------------------------------------------------------|
E|--------------------------------------------------------------------------|

  Chorus: X4
e|--------------------------------------------------------------------------|
B|--------------------------------------------------------------------------|
G|--------------------------------------------------------------------------|
D|---777--333---777--333----------------------------------------------------|
A|---777--333---777--333----------------------------------------------------|
E|---555--333---555--333----------------------------------------------------|

   Bridge: Tapping 
e|------10131013101310131013101310131013101310131010------------------------|
B|--------------------------------------------------------------------------|
G|--------------------------------------------------------------------------|
D|--------------------------------------------------------------------------|
A|--------------------------------------------------------------------------|
E|--------------------------------------------------------------------------|

Solo: Guitar 1 Tapping
   (ten)
e|---1010101010101010101010101010101010101010131313131313131313131313131313-|
B|--------------------------------------------------------------------------|
G|--------------------------------------------------------------------------|
D|--------------------------------------------------------------------------|
A|--------------------------------------------------------------------------|
E|--------------------------------------------------------------------------|

e|--------------------------------------------------------------------------|
B|---1010101010101010101010101010101010101010131313131313131313131313131313-|
G|--------------------------------------------------------------------------|
D|--------------------------------------------------------------------------|
A|--------------------------------------------------------------------------|
E|--------------------------------------------------------------------------|

e|--------------------------------------------------------------------------|
B|--------------------------------------------------------------------------|
G|---1010101010101010101010101010101010101010131313131313131313131313131313-|
D|--------------------------------------------------------------------------|
A|--------------------------------------------------------------------------|
E|--------------------------------------------------------------------------|

Guitar 2                                         tapping
e|--10--13--10--------------------------------------------------------------|
B|--------------13--10--13-------------------13-----------------------------|
G|--------------------------12--10---12--10-----101010101010101010101010----|
D|--------------------------------------------------------------------------|
A|--------------------------------------------------------------------------|
E|--------------------------------------------------------------------------|

e|--------------------------------------------------------------------------|
B|--------------------------------------------------------------------------|
G|---131313131313131313131313-----------------------------------------------|
D|--------------------------------------------------------------------------|
A|--------------------------------------------------------------------------|
E|--------------------------------------------------------------------------|

Chorus: X4
e|--------------------------------------------------------------------------|
B|--------------------------------------------------------------------------|
G|--------------------------------------------------------------------------|
D|---777--333---777--333----------------------------------------------------|
A|---777--333---777--333----------------------------------------------------|
E|---555--333---555--333----------------------------------------------------|

Outro: 
e|--------------------------------------------------------------------------|
B|--------------------------------------------------------------------------|
G|------------10/11/10--13--------------------------------------------------|
D|--11/12/11----------------------------------------------------------------|
A|--------------------------------------------------------------------------|
E|--------------------------------------------------------------------------|
Tap to rate this tab
 
# A B C D E F G H I J K L M N O P Q R S T U V W X Y Z