Song name
# A B C D E F G H I J K L M N O P Q R S T U V W X Y Z

Misc Unsigned Bands - Lead Foot - Meloncholy tab

D-tune (D,A,D,G,B,e)

---------------------------------------------------------------|
Verse                                                          |
---------------------------------------------------------------|

e|------------------------------------------|
B|------------------------------------------|
G|------------------------------------------|
D|------7~---7--------5~-4-2-0--2~--4~--5-0~|  (x4)
A|----5~---5---5----5~----------2~--4~--5-0~|
D|-0~------------5~-------------2~--4~--5-0~|

---------------------------------------------------------------|
Chorus                                                         |
---------------------------------------------------------------|

e|--------------------------------------------------|
B|--------------------------------------------------|
G|-10--10--10-10-10/12--12--12-12-12--7~--x-x-5~--2~|
D|-10--10--10-10-10/12--12--12-12-12--7~--x-x-5~--2~|  (x2)
A|-8---8---8--8--8-/10--10--10-10-10--7~--x-x-5~--2~|
D|-8---8---8--8--8-/10--10--10-10-10--7~--x-x-5~--2~|

e|----------------------------------------|
B|----------------------------------------|
G|-5--5--5-5-5/7--7--7-7-7--3~--x-x-2~--0~|
D|-5--5--5-5-5/7--7--7-7-7--3~--x-x-2~--0~|
A|-5--5--5-5-5/7--7--7-7-7--3~--x-x-2~--0~|
D|-5--5--5-5-5/7--7--7-7-7--3~--x-x-2~--0~|

Intro(verse) x1
Verse 
Chorus 
Verse 
Chorus

Tap to rate this tab
# A B C D E F G H I J K L M N O P Q R S T U V W X Y Z