Song name
# A B C D E F G H I J K L M N O P Q R S T U V W X Y Z

Misc Unsigned Bands - Msalazar - Gay Warm Up tab

Help us improve GuitareTab! Take a short survey!
a fun little tune to play faster and faster^^


e-------------------------------------------------------------------|
b-------------------------------------------------------------------|
g-------------------------------------------------------------------|
d-------------------------------------------------------------------|
a---2---4---5----4----2-----0--------0----2---4---5----4---2---0--2-|
d-------------------------------4-----------------------------------|

e----------------------------------------------------|
b----------------------------------------------------|
g----------------------------------------------------|
d--------------2----4----2------------------2--------|
a--2---4---5-----------------5---4---2---5-----0---0-|
d----------------------------------------------------|


e-----------------------------------------------------------------|
b-----------------------------------------------------------------|
g-----------------------------------------------------------------|
d-----------------------------------------------------------------|
a--2---4----5----4----2----0------------------------0---2---4---2-|
d------------------------------4---2----0---2---4-----------------|


e-------------------------------------------------------|
b-------------------------------------------------------|
g-------------------------------------------------------|
d---------------2---4---0---2---------------------------|
a--2---4----5-------------------4---0---4---2---2-0-2---|
d-------------------------------------------------------|


www.myspace.com/mxmafia
Related for Msalazar - Gay Warm Up tab