Song name
# A B C D E F G H I J K L M N O P Q R S T U V W X Y Z

Misc Unsigned Bands - Verse - Tear Down These Walls tab

Verse - Tear Down These Walls (Guitar)
Tabbed by: Nicholas Wong
Standard Tuning

intro
|----------------|
|----5------3----|
|------4------0--|
|----------------|
|-22-----55------|
|-00-----33------|
  ..     ..

verse (x2)
|--------------------------------------------------------------------|
|--------------------------------------------------------------------|
|----------------------------------5555555555555555-7777777777777777-|
|-22222222222222222222222222222222-5555555555555555-7777777777777777-| 
|-22222222222222222222222222222222-3333333333333333-5555555555555555-|
|-00000000000000000000000000000000-----------------------------------|

(lead plays this riff on repeat)
|------------------------------------------------------------------------------------|
|------------------------------------------------------------------------------------|
|-1212121212121212-141414-121212-1111111111111111-141414-121212-77-99999999-77777777-|
|--x-x-x-x-x-x-x-x--x-x-x--x-x-x--x-x-x-x-x-x-x-x--x-x-x--x-x-x-xx-xxxxxxxx-xxxxxxxx-|
|-1010101010101010-121212-101010--9-9-9-9-9-9-9-9-121212-101010-55-77777777-55555555-|
|------------------------------------------------------------------------------------|

chorus (x3)
|-----------------------------------------------------|
|-----------------------------------------------------|
|-----------------------------------------------------|
|-2-2-2-2-2-0--2-2-2-2-2-0--2-2-2-2-2-0--2-2-2-2-2-0--|
|-2-2-2-2-2-0--2-2-2-2-2-0--2-2-2-2-2-0--2-2-2-2-2-0--|
|-0-0-0-0-0-0--0-0-0-0-0-0--0-0-0-0-0-0--0-0-0-0-0-0--|

(rhythm)
|-----------------------------------|
|-----------------------------------|
|-5555555555555555-7777777777777777-|
|-5555555555555555-7777777777777777-|
|-3333333333333333-5555555555555555-|
|-----------------------------------|

(lead)
|----------------------------------------------------|
|----------------------------------------------------|
|-5555555555555555-16161616161616161414141414141414--|
|-5555555555555555--x-x-x-x-x-x-x-x-x-x-x-x-x-x-x-x--|
|-3333333333333333-14141414141414141212121212121212--|
|----------------------------------------------------|

Repeat Verse

2nd Chorus(x2)
-silent-
then...TEAR DOWN THESE...!

(rhythm)
|----------------------------------|
|----------------------------------|
|----------------------------------|
|-22222222222222222222222222222222-|
|-22222222222222222222222222222222-|
|-00000000000000000000000000000000-|

(lead)
|-------------------------------------|
|-------------------------------------|
|------------------777999111111111111-|
|-2222222222222222-xxxxxx-x-x-x-x-x-x-|
|-2222222222222222-555777-9-9-9-9-9-9-|
|-0000000000000000--------------------|

(both)
|-----------------------------|
|-----------------------------|
|-55555--55555--55555--55555--|
|-55555--55555--55555--55555--|
|-33333--33333--33333--33333--|
|-----------------------------|

www.myspace.com/verse
Tap to rate this tab
# A B C D E F G H I J K L M N O P Q R S T U V W X Y Z