Song name
# A B C D E F G H I J K L M N O P Q R S T U V W X Y Z

Misc Unsigned Bands - Rupam And Bumpy - Basi Fuler Gondhe tab

basi fuler gondhe_Rupam and Bumpy
This is an awesome song by the frontman of FOSSILS and his friend.
the acoustic intro might have been played using three guitars,like:

GUITAR 1:

e:------0---------0---------0---------0---|
B:----3---3-----3---3-----3---3-----3---3-|
G:--2-------2-2---------3-------3-3-------|
D:----------------------------------------|
A:----------------------------------------|
E:----------------------------------------|

GUITAR 2:

e:------0--------0--------0--------0---|
B:----3---3--3-3---3----3---3--3-3---3-|
G:--2-------2-2-------3-------3-3------|
D:-------------------------------------|
A:-------------------------------------|
E:-------------------------------------|

WHILE THE 3RD GUITAR STRUMS THE CHORDS

e:--0---0-|
B:--3---3-|
G:--2---3-|
D:--0---0-|
A:--------|
E:--------|


The chords are the same for the song's verse 1and verse 2

The chords for the pre chorus are:
     F5	       D#5               D5
e:------------------------------------------------------|
B:------------------------------------------------------|
G:------------------------------------------------------|
D:---10--------8-----------------7----------------------|
A:---8---------6-----------------5----------------------|
E:------------------------------------------------------|

 F5                   D#5		    F5
jodi tomay boli notun sopno dekhte laagchey bhoi
.
.
.
 F5		      D#5   D5
tomar preme ami bartho hoye hochi ghami dhorsho kaami.....

then the bass plays:
e:------------------------------------------------------|
B:------------------------------------------------------|
G:------------------------------------------------------|
D:------------------------------------------------------|
A:--------------5-5-4-4---------------------------------|
E:--0-0-3-3-5-5--------6-6-5----------------------------|

THe chords to the chorus are:

e:------------------------------------------------------|
B:------------------------------------------------------|
G:------------------------------------------------------|
D:----7-------5-----------------------------------------|
A:----5-------3----7------------------------------------|
E:-----------------5------------------------------------|


like

D5                   C5	  A5		  D5
tumi nei tomari sommohon amay bartho kore jaay khuji ssei tomake..... tumi nei

the riff played in the song as solo:

e:------------------------------------------------------|
B:------------------------------------------------------|
G:------------------------------------------------------|
D:----7----9-----10---12---10---9-----------------------|
A:----5----7-----8----10---8----7-----------------------|
E:------------------------------------------------------|

e:------------------------------------------------|
B:------------------------------------------------|
G:------------------------------------------------|
D:----7----9-----10---12--------------------------|
A:----5----7-----8----10--------------------------|
E:------------------------------------------------| twice


My bangla is poor,so I apologize on not being able to enclose the lyrics.


Advice.Applause.....Anything you have for me......
Please PleasePleasePlease send'em 2 me at PristineSap@yahoo.co.in
Tap to rate this tab
 
# A B C D E F G H I J K L M N O P Q R S T U V W X Y Z