Song name
# A B C D E F G H I J K L M N O P Q R S T U V W X Y Z

Misc Unsigned Bands - Good Ideas Bad Intentions - Unknown Master tab

intro (acoustic & half flange/chorus)

|---------------------------------------------------|
|---------------------------------------------------|
|---------------------------------------------------|
|--------3~~~---------5~~~--------------------------|
|-----5-----------5------------5---3~~~-----5\--1~~~|
|--3-----------3------------3------------3----------|

part 2 (heavy distortion)

|-------------x2------------------|
|----/-----/-----\------\---------|
|---/-----/-------\------\--------|
|---------------------------------|
|-0--1--2--3--x2--0--3--2--1--x2--|
|-0--1--2--3------0--3--2--1------|

main riff (heavy distortion)

|------------------------------------------------------------------------|
|------------------------------------------------------------------------|
|--/--------p.m.-------\-------------/--------p.m.-------\---------------|
|-/---------------------\--------3--/---------------------\------5-------|
|-----------------------------5---------------------------------5--------|
|-0-0-0-0-0-0-0-0-0-0-0-0--3--------0-0-0-0-0-0-0-0-0-0-0-0--3-----------|

|----------------------------------------------------------------------2-|
|----------------------------------------------------------------------2-|
|--/-------p.m.-------\--------------/---p.m.----\---------------------2-|
|-/--------------------\------------/-------------\--------------5--3----|
|-----------------------------5--3-------------------------5--3----------|
|-0-0-0-0-0-0-0-0-0-0-0-0--3--------0-0-0-0-0-0-0-0--5--3----------------|
Tap to rate this tab
 
# A B C D E F G H I J K L M N O P Q R S T U V W X Y Z