Song name
# A B C D E F G H I J K L M N O P Q R S T U V W X Y Z

Misc Unsigned Bands - Miscellaneous - Cantina Band tab

-------------------------------------------------------------------------------
			     Cantina Band (Star Wars)- Miscellaneous
-------------------------------------------------------------------------------
Tabbed by: Guitarman34
Email: End_Y_34@yahoo.com

Tuning: EADGBE

e|------9---9--9-----------7--7----------------9---9--9------------|
B|----9---9---9--9--8h9---------8h9----------9---9---9--9--8h9-----|
G|-----------------------------------9--6--------------------------|
D|-----------------------------------------------------------------|
A|-----------------------------------------------------------------|
E|-----------------------------------------------------------------|

e|-------------7---------------9---9--9-----------7--7-------------|
B|---7--7---7---10--9--7-----9---9---9--9--8h9---------9p7---------|
G|----------------------------------------------------------9--6---|
D|-----------------------------------------------------------------|
A|-----------------------------------------------------------------|
E|-----------------------------------------------------------------|

e|---------------7--7/10--9---------------16----16---16----16------|
B|---------8h9---------------8h9--------------17---------17--------|
G|--6--9---------------------------9-------------------------------|
D|-----------------------------------------------------------------|
A|-----------------------------------------------------------------|
E|-----------------------------------------------------------------|

e|---16-----15h16-------------16----16---16----16----16-----15h16--|
B|------17----------17--14--------17---------17----------17--------|
G|-----------------------------------------------------------------|
D|-----------------------------------------------------------------|
A|-----------------------------------------------------------------|
E|-----------------------------------------------------------------|

e|----14-------16----16---16----16----16----15h16------------------|
B|-----------------17---------17---------17----------17---14-------|
G|--------16-------------------------------------------------------|
D|-----------------------------------------------------------------|
A|-----------------------------------------------------------------|
E|-----------------------------------------------------------------|

e|----------12--------12-------------------------------------------|
B|-------14--------14-----12h14-------10/12---10-------------------|
G|----14--------15---------------13----------------12/13----9~-----|
D|-----------------------------------------------------------------|
A|-----------------------------------------------------------------|
E|-----------------------------------------------------------------|



| /  slide up
| h  hammer-on
| p  pull-off
| ~  vibrato
===============================================================================
Tap to rate this tab
# A B C D E F G H I J K L M N O P Q R S T U V W X Y Z