Song name
# A B C D E F G H I J K L M N O P Q R S T U V W X Y Z

Misc Unsigned Bands - The Boonies - Wait For Me tab

Intro

Repeat 4 times
--0--0-0--0--0-0--3-3-5-2--2-3-2--------------------------------------------|
--0--0-0--1--1-1--0-0-0-3--3-3-3--------------------------------------------|
--0--0-0--0--0-0--0-0-0-2--2-2-2--------------------------------------------|
--2--2-2--2--2-2--0-0-------------------------------------------------------|
--2--2-2--3--3-3--2-2-------------------------------------------------------|
--0--0-0--3--3-3--3-3-------------------------------------------------------|

Verse

Repeat 4 times
------------------------------2--------------------------------------------|
------0-------1-------0---------3------------------------------------------|
--------0-------0-------0--------------------------------------------------|
----------------------------0----------------------------------------------|
----2-------3-------2-----0------------------------------------------------|
--0-------3-------3--------------------------------------------------------|

Chorus

Repeat 4 time
--0--0-0--0--0-0--3--3-3--2--2-2--------------------------------------------|
--0--0-0--1--1-1--0--0-0--3--3-3--------------------------------------------|
--0--0-0--0--0-0--0--0-0--2--2-2--------------------------------------------|
--2--2-2--2--2-2--0--0-0--0--0-0--------------------------------------------|
--2--2-2--3--3-3--2--2-2--0--0-0--------------------------------------------|
--0--0-0--3--3-3--3--3-3--0--0-0--------------------------------------------|

In Order:

Intro
Verse
Chorus
Verse
Chorus
Chorus
Tap to rate this tab
# A B C D E F G H I J K L M N O P Q R S T U V W X Y Z