Song name
# A B C D E F G H I J K L M N O P Q R S T U V W X Y Z

Misc Unsigned Bands - Tonight We Fall - Reaffirming My Self Confidence tab

Reaffirming My Self Confidence (guitar tabs)

Standard Tuning

.= Palm mute
~ = Hold

Part One: Distortion

e|----------------------------------------------|
B|-------------------------------------12~------|
G|-------------------------------------15~------|
D|----------------------------------------------|
A|-0-0-0--0-0-0--0-0-0--0-0-0--0-0-0------------|
E|-0-0-0--0-0-0--0-0-0--0-0-0--0-0-0------------| (x2)


e|---------------------------------|
B|---------------------------------|
G|---------------------------------|
D|---------------------------------|
A|-000000000000000000000000000-----|
E|-000000000000000000000000000-----| (tremolo pick)

(Don’t take my picture by the pool)

e|---------------------------------|
B|---------------------------------|
G|---------------------------------|
D|---------------------------------|
A|-000000000000000000000000000-----|
E|-000000000000000000000000000-----| (tremolo pick)

(I’ll never be the next big thing!)

e|---------------------------------|
B|---------------------------------|
G|---------------------------------|
D|---------------------------------|
A|-000000000000000000000000000-----|
E|-000000000000000000000000000-----| (tremolo pick)

e|---------------------|
B|-12~-----------------|
G|-15~-----------------|
D|---------------------|
A|---------------------|
E|---------------------|

(Or so they say…)

e|--------------------------------------------------|
B|--------------------------------------------------|
G|-7-7-7-7-7-7-7-7-5-5-5-5-5-5-5-5-3-3-3-3-3-3-3-3--|
D|-0-0-0-0-0-0-0-0-0-0-0-0-0-0-0-0-0-0-0-0-0-0-0-0--|
A|-5-5-5-5-5-5-5-5-3-3-3-3-3-3-3-3-1-1-1-1-1-1-1-1--|
E|--------------------------------------------------|

e|---------------------------|
B|---------------------------|
G|-3-3-3-3-3-3---------------|
D|-1-1-1-1-1-1---------------|
A|---------------------------|
E|---------------------------|
   . .   . .

e|--------------------------------------------------|
B|--------------------------------------------------|
G|-7-7-7-7-7-7-7-7-5-5-5-5-5-5-5-5-3-3-3-3-3-3-3-3--|
D|-0-0-0-0-0-0-0-0-0-0-0-0-0-0-0-0-0-0-0-0-0-0-0-0--|
A|-5-5-5-5-5-5-5-5-3-3-3-3-3-3-3-3-1-1-1-1-1-1-1-1--|
E|--------------------------------------------------|

e|---------------------------|
B|---------------------------|
G|-3-3-3-3-3-3---------------|
D|-1-1-1-1-1-1---------------|
A|---------------------------|
E|---------------------------|
   . .   . .

e|--------------------------------------------------|
B|--------------------------------------------------|
G|--------------------------------------------------|
D|--------------------------------------------------|
A|-3-3-3-3-3-3-3-3-3-3-3-3-3-3-3-3-7-7-7-7-7-7-7-7--|
E|-1-1-1-1-1-1-1-1-1-1-1-1-1-1-1-1-5-5-5-5-5-5-5-5--|

e|---------------------|
B|---------------------|
G|---------------------|
D|---------------------|
A|-5-5-5-5-5-5-5-5-----|
E|-3-3-3-3-3-3-3-3-----|

e|--------------------------------------------------|
B|--------------------------------------------------|
G|--------------------------------------------------|
D|--------------------------------------------------|
A|-3-3-3-3-3-3-3-3-3-3-3-3-3-3-3-3-7-7-7-7-7-7-7-7--|
E|-1-1-1-1-1-1-1-1-1-1-1-1-1-1-1-1-5-5-5-5-5-5-5-5--|

e|---------------------|
B|---------------------|
G|---------------------|
D|---------------------|
A|-5-5-5-5-5-5-5-5-----|
E|-3-3-3-3-3-3-3-3-----|

e|-------------------------------|
B|-------------------------------|
G|-------------------------------|
D|-3-3-3-3-3-3-3-3-3-3-3-3-3-3-3-|
A|-1-1-1-1-1-1-1-1-1-1-1-1-1-1-1-|
E|-------------------------------|
   . .   . . .   . . .   . . .

e|-------------------------------|
B|-------------------------------|
G|-------------------------------|
D|-5-5-5-5-5-5-5-5-5-5-5-5-5-5-5-|
A|-3-3-3-3-3-3-3-3-3-3-3-3-3-3-3-|
E|-------------------------------|
   . .   . . .   . . .   . . .


e|-------------------------------|
B|-------------------------------|
G|-------------------------------|
D|-7-7-7-7-7-7-7-7-7-7-7-7-7-7-7-|
A|-5-5-5-5-5-5-5-5-5-5-5-5-5-5-5-|
E|-------------------------------|
   . .   . . .   . . .   . . .

e|-------------------------------|
B|-------------------------------|
G|-------------------------------|
D|-3-3-3-3-3-3-3-3-3-3-3-3-3-3-3-|
A|-1-1-1-1-1-1-1-1-1-1-1-1-1-1-1-|
E|-------------------------------|
   . .   . . .   . . .   . . .

e|-------------------------------|
B|-------------------------------|
G|-------------------------------|
D|-5-5-5-5-5-5-5-5-5-5-5-5-5-5-5-|
A|-3-3-3-3-3-3-3-3-3-3-3-3-3-3-3-|
E|-------------------------------|
   . .   . . .   . . .   . . .


e|--------------------------------|
B|--------------------------------|
G|--------------------------------|
D|-7-7-7-7-7-7-7-7-7-7-7-7-7-7-7~-|
A|-5-5-5-5-5-5-5-5-5-5-5-5-5-5-5~-|
E|--------------------------------|
   . .   . . .   . . .   . . .


e|-------------------------|
B|-------------------------|
G|-------------------1-3~--|
D|---------------1-3-------|
A|-3-3-3-3-3-1-3-----------|
E|-1-1-1-1-1---------------| (x2)

e|------------------------|
B|------------------------|
G|-------------------3-5~-|
D|---------------3-5------|
A|-5-5-5-5-5-3-5----------|
E|-3-3-3-3-3--------------| (x2)

e|-----3-1-0---------3-1-0----|
B|-----------3-1----------3-1-|
G|----------------------------|
D|----------------------------|
A|-0-0-----------0-0----------|
E|-0-0-----------0-0----------|

Part Two: Clean
e|-2-2--2-2-2--2-2-2--2-2-2-------|
B|-3-3--3-3-3--3-3-3--3-3-3-------|
G|-2-2--2-2-2--2-2-2--2-2-2-------|
D|--------------------------------|
A|--------------------------------|
E|--------------------------------| Play several times


(What the fuck is up with that?)

Part Three: Distortion


e|---------------------------------|
B|---------------------------------|
G|---------------------------------|
D|---------------------------------|
A|-000000000000000000000000000-----|
E|-000000000000000000000000000-----| (tremolo pick)

(what the fuck is…)

e|---------------------------------|
B|---------------------------------|
G|---------------------------------|
D|---------------------------------|
A|-000000000000000000000000000-----|
E|-000000000000000000000000000-----| (tremolo pick)

(what the fuck is…)

e|---------------------------------|
B|---------------------------------|
G|---------------------------------|
D|---------------------------------|
A|-000000000000000000000000000-----|
E|-000000000000000000000000000-----| (tremolo pick)
Tap to rate this tab
 
# A B C D E F G H I J K L M N O P Q R S T U V W X Y Z