Song name
# A B C D E F G H I J K L M N O P Q R S T U V W X Y Z

Misc Unsigned Bands - Unicycle Dysfunction - Sleepy Top Hat tab

Intro

e --------------|
b --------------|
g --------------|
d --------------|
a -2-0-2-0------|
e 0-------3-2-3-|  3 times


Verse

e ---------------------|
b ---------------------|
g ---------------------|
d ---------------------|
a 2-2-2-2-2-2-22222222-|
e 0-0-0-0-0-0-00000000-|   4 times

Chorus

e ----------------------------------------|
b ----------------------------------------|
g ----------4-44-4-44-----------7-77-7-77-|
d ----------4-44-4-44-5-55-5-55-7-77-7-77-|
a 2-22-2-22-2-22-2-22-5-55-5-55-5-55-5-55-|
e 0-00-0-00-----------3-33-3-33-----------| 2 times

Verse 2 times

Chorus

Outro(same as Intro)
Tap to rate this tab
# A B C D E F G H I J K L M N O P Q R S T U V W X Y Z