Song name
# A B C D E F G H I J K L M N O P Q R S T U V W X Y Z

Misc Unsigned Bands - The Casual Friday Experience - Youre Not Hot Enough tab

   You're Not Hot Enough - The Casual Friday Experience
-------------------------------------------------------------------------------
Tabbed by:dstokes
Email:casualfridayband@hotmail.com
Tuning:normal
verses:
e|---------------------------------------------------------------------------|
B|---------------------------------------------------------------------------|
G|---------------------------------------------------------------------------|
D|---------------------------------------------------------------------------|
A|-----7-----7---7-----5-----5---5-----10-----10---10-------12-------12----12|
E|-5-5---5-5---5---3-3---3-3---3---8-8----8-8----8----10-10----10-10----10---|
chorus:
e|---------------------------------------------------------------------------|
B|---------------------------------------------------------------------------|
G|---------------------------------------------------------------------------|
D|---------------------------------------------------------------------------|
A|-7--7-7-7-7--5--5-5-5-5--10--10-10-10-10--12--12-12-12-12------------------|
E|-5--5-5-5-5--3--3-3-3-3--8---8--8--8--8---10--10-10-10-10------------------|
solo:
e|---------------------------------------------------------------------------|
B|---------------------------------------------------------------------------|
G|---------------------------------------------------------------------------|
D|/7-7-7-7-7-7-7\5-5-5-5-5-5/10-10-10-10-10-10/12-12-12-12-12-12-------------|
A|---------------------------------------------------------------------------|
E|---------------------------------------------------------------------------|
repeat above, then:
e|---------------------------------------------------------------------------|
B|----------------------------------5-3--------------------------------------|
G|---------5---------7^---------5-7-----5------------------------------------|
D|-7-7-5-7---7-7-5-7----7-7-5-7-----------5----------------------------------|
A|---------------------------------------------------------------------------|
E|---------------------------------------------------------------------------|
e|---------------------------------------------------------------------------|
B|---------------------------------------------------------------------------|
G|---------5---------7^--------5-7-5-----------------------------------------|
D|-7-7-5-7---7-7-5-7---7-7-5-7-------7-9-10----------------------------------|
A|---------------------------------------------------------------------------|
E|---------------------------------------------------------------------------|
e|---------------------------------------------------------------------------|
B|------------------------------------------------17-15----------------------|
G|-------------17------------19^------------17-19-------17-------------------|
D|-19-19-17-19---19-19-17-19----19-19-17-19----------------17----------------|
A|---------------------------------------------------------------------------|
E|---------------------------------------------------------------------------|
e|---------------------------------------------------------------------------|
B|---------------------------------------------------------------------------|
G|-------------17-------------19^------------17-19-17------------------------|
D|-19-19-17-19----19-19-17-19----19-19-17-19----------19-20-22---------------|
A|---------------------------------------------------------------------------|
E|---------------------------------------------------------------------------|
come down from solo back into verse:
e|---------------------------------------------------------------------------|
B|---------------------------------------------------------------------------|
G|----------17--17-19^-17-------17-19^-19-17---------------------------------|
D|-20-19-17---19----------19-17--------------19------------------------------|
A|---------------------------------------------------------------------------|
E|---------------------------------------------------------------------------|
Bass is simple.....A   G   C   D.  Repeats throughout the entire song.
| /  slide up
| \  slide down
| h  hammer-on
| p  pull-off
| ~  vibrato
| +  harmonic
| x  Mute note
===============================================================================
Tap to rate this tab
# A B C D E F G H I J K L M N O P Q R S T U V W X Y Z