Song name
# A B C D E F G H I J K L M N O P Q R S T U V W X Y Z

Misc Unsigned Bands - Rejected Possibilities - Bathed In Sorrow tab

e|--------------------------------------------------------------------------|
B|--------------------------------------------------------------------------|
G|----7----------7---------5-------5-------7--------7-----------------------|
D|------565---------565------343-----343------565-----565-------------------|
A|--5--------5----------3--------3-------5--------5-------------------------|
E|--------------------------------------------------------------------------|

e|--------------------------------------------------------------------------|
B|--------------------------------------------------------------------------|
G|----9---------7-----------------------------------------------------------|
D|------787--------565------------------------------------------------------|
A|--7--------5--------------------------------------------------------------|
E|--------------------------------------------------------------------------|

****MOVE EVERYTHING DOWN ONE STRING!!!!!*****
(TIMES 5)

| /  slide up
| \  slide down
| h  hammer-on
| p  pull-off
| ~  vibrato
| +  harmonic
| x  Mute note
Tap to rate this tab
 
# A B C D E F G H I J K L M N O P Q R S T U V W X Y Z