Song name
# A B C D E F G H I J K L M N O P Q R S T U V W X Y Z

Misc Unsigned Bands - Paulineee - Catch On tab

capo on 2nd fret.

first song ever written by me.

Intro:

E:---------------------------------------------|
B:-----3-------3----3--------------------------|
G:----3-------3----3-----0-----0-0-----0-------|
D:---2-------2----2---------2------2----2------|
A:-0------0-0---0------------2------2----2-----|
e:----------------------------0------0----0----|



E:------------|
B:--3-2-0-----|
G:--------2h4-|
D:------------|
A:------------|
e:------------|
    She was Nervous


E:------------|
B:--3-2-0---5-|
G:--------2---|
D:------------|
A:------------|
e:------------|

    She meant to hit him gently


Chorus:

E:----2----------2---1-----|
B:-2--2------2---3---3----2|
G:-2--2------2---2---2----2|
D:----4--------------------|
A:----4--------------------|
e:----2--------------------|

Verse(I think):

E:--------|
B:--------|
G:--2---1-|
D:--2---2-|
A:------2-|
e:--------|    x (until you hit 'game over i forfeit')


Chorus: 
(a tad different)

E:----2----------2-------|
B:-2--2------2---3-------|
G:-2--2------2---2-------|
D:----4------------------|
A:----4------------------|
e:----2------------------|

Bridge:


E:-----------2---2--1-|
B:-----------2---3--3-|
G:---2---1---2---2--2-|
D:---2---2---4--------|
A:-------2---4--------|
e:-----------2--------|



ENd:
E:---------------------------------------------|
B:-----3-------3----3--------------------------|
G:----3-------3----3-----0-----0-0-----0-------|
D:---2-------2----2---------2------2----2------|
A:-0------0-0---0------------2------2----2-----|
e:----------------------------0------0----0----|

Tap to rate this tab
# A B C D E F G H I J K L M N O P Q R S T U V W X Y Z