Guitaretab - guitar tabs
Song name
# A B C D E F G H I J K L M N O P Q R S T U V W X Y Z

Misc Unsigned Bands - The Young Sea - Ghostwhite tab

This is a great song, the young sea rocks.  You can get their lyrics from their myspace page.
:|| = repeat *listen to the song to figure out how many times*
^ = bend
/ = slide

Intro/Gtr I:

Gtr II verse: power chords G B A A
[ Tab from: ]
Gtr I verse:
e----------------:||     e-------------------|
b----------------:||     b-------15:||-14:|-|   repeat 2X
g-9/11--14-12-11-:||     g-12:||-------------|
d----------------:||     d-------------------|

Gtr I break:
e-----------------------     e--------------------|
b-------15--------------     b-------15-----------|
g----12----12-14^^^^^14-     g----12----12-14^-12-|
d-12--------------------     d-12-----------------|

Gtr II: "Run, soon the clouds will..." power chords B A

These are the main parts, you can gigure out when to play each part when you listen to 
song.  Thanks.
Related for The Young Sea - Ghostwhite tab